Oops, an error
Loading. Please wait.

Bottled Tab

version 1
version 1

Whole song

Interactive

1,807 views 1 this week
no commentswrite comment
1 2 3 4 5
please rate
add to favorites
launch autoscroll
font size
0
reset
how to read this tab
guitar tuner
Autoscroll
slow
fast
+/-
esc
set tempo
stop
Help us to improve Ultimate-Guitar.com Take our survey!
×
Author
Difficulty
intermediate
Bottled
By In Flames
Album: Soundtrack to Your Escape
Tunind: Drop A# (A# F A# D# G C)


legend:
X- scratch      pm|...|- palm mute


intro:

|--------------------------------------------------------------------------|
|--------------------------------------------------------------------------|
|--------------------------------------------------------------------------|
|-7-0-0-2-4-8-7-3-5-7-0-0-2-4-8-7-3-5-7-0-0-2-4-8-7-3-5--7-0-0-2-4-8-7-3-5-|
|-5-0-0-2-4-8-7-3-5-5-0-0-2-4-8-7-3-5-5-0-0-2-4-8-7-3-5--5-0-0-2-4-8-7-3-5-|
|---0-0-2-4-8-7-3-5---0-0-2-4-8-7-3-5---0-0-2-4-8-7-3-5----0-0-2-4-8-7-3-5-|
 pm|.......|         |.......|         |.......|          |.......|
[repeat once, then]


verse 1:

|---------------|
|---------------|
|---------------|
|-77X777-881010-|
|-55X555-881010-|
|--------881010-|  repeat 8 times, then

 |--------------------------------------------------|
 |--------------------------------------------------|
 |--------------------------------------------------|
 |--------------------------------------------------|
 |-555588777333555588777333555588777333555588777333-|
 |--------------------------------------------------|
pm|........................................|


chorus 1:

|----------------------------------------------|
|----------------------------------------------|
|----------------------------------------------|
|-3-3-33-33-7-7777777777-7-7-77-77-8-8-8888888-|
|-3-3-33-33-7-7777777777-5-5-55-55-8-8-8888888-|
|-3-3-33-33-7-7777777777-----------8-8-8888888-|

|----------------------------------------------------------|
|----------------------------------------------------------|
|----------------------------------------------------------|
|-3-3-33-33-7-7777777777-7-0-0-2-4-8-7-3-5-0-0-2-4-8-7-3-5-|
|-3-3-33-33-7-7777777777-5-0-0-2-4-8-7-3-5-0-0-2-4-8-7-3-5-|
|-3-3-33-33-7-7777777777---0-0-2-4-8-7-3-5-0-0-2-4-8-7-3-5-|
                        pm|.......|       |.......|


verse two:

|---------------|
|---------------|
|---------------|
|-77X777-881010-|
|-55X555-881010-|
|--------881010-| repeat four times


chorus two:

|----------------------------------------------|
|----------------------------------------------|
|----------------------------------------------|
|-3-3-33-33-7-7777777777-7-7-77-77-8-8-8888888-|
|-3-3-33-33-7-7777777777-5-5-55-55-8-8-8888888-|
|-3-3-33-33-7-7777777777-----------8-8-8888888-|

|----------------------------------------------|
|----------------------------------------------|
|----------------------------------------------|
|-3-3-33-33-7-7777777777-7-7-77-77-8-8-8888888-|
|-3-3-33-33-7-7777777777-5-5-55-55-8-8-8888888-|
|-3-3-33-33-7-7777777777-----------8-8-8888888-|


interlude:

 |--------------------------|
 |--------------------------|
 |--------------------------|
 |--------------------------|
 |-555588777333555588777333-|
 |--------------------------|
 pm|.......................|


then the part that comes after, i only know the background part. the solo is just really hard:

|------------------|
|------------------|
|------------------|
|-7-7-10-5-3-3-2-5-|
|-5-5-8--3-1-1-0-3-|
|------------------|  repeat once, then go on with

|-----------------|
|-----------------|
|-----------------|
|-3-3-6-1-5-5-3-8-|
|-3-3-6-1-3-3-1-6-|
|-3-3-6-1---------|   repeat once, then go on with




|---------------|
|---------------|
|---------------|
|-77X777-881010-|
|-55X555-881010-|
|--------881010-|  repeat eight times, then



closing chorus:

|----------------------------------------------|
|----------------------------------------------|
|----------------------------------------------|
|-3-3-33-33-7-7777777777-7-7-77-77-8-8-8888888-|
|-3-3-33-33-7-7777777777-5-5-55-55-8-8-8888888-|
|-3-3-33-33-7-7777777777-----------8-8-8888888-|

|----------------------------------------------|
|----------------------------------------------|
|----------------------------------------------|
|-3-3-33-33-7-7777777777-7-7-77-77-8-8-8888888-|
|-3-3-33-33-7-7777777777-5-5-55-55-8-8-8888888-|
|-3-3-33-33-7-7777777777-----------8-8-8888888-|

|----------------------------------------------|
|----------------------------------------------|
|----------------------------------------------|
|-3-3-33-33-7-7777777777-7-7-77-77-8-8-8888888-|
|-3-3-33-33-7-7777777777-5-5-55-55-8-8-8888888-|
|-3-3-33-33-7-7777777777-----------8-8-8888888-|

|----------------------------------------------|
|----------------------------------------------|
|----------------------------------------------|
|-3-3-33-33-7-7777777777-7-7-77-77-8-8-8888888-|
|-3-3-33-33-7-7777777777-5-5-55-55-8-8-8888888-|
|-3-3-33-33-7-7777777777-----------8-8-8888888-|

|-----------------|
|-----------------|
|-----------------|
|-3-3-6-1-5-5-3-8-|
|-3-3-6-1-3-3-1-6-|
|-3-3-6-1---------| repeat, then go to

|--------------------------------------------------------------------------|
|--------------------------------------------------------------------------|
|--------------------------------------------------------------------------|
|-7-0-0-2-4-8-7-3-5-7-0-0-2-4-8-7-3-5-7-0-0-2-4-8-7-3-5--7-0-0-2-4-8-7-3-5-|
|-5-0-0-2-4-8-7-3-5-5-0-0-2-4-8-7-3-5-5-0-0-2-4-8-7-3-5--5-0-0-2-4-8-7-3-5-|
|---0-0-2-4-8-7-3-5---0-0-2-4-8-7-3-5---0-0-2-4-8-7-3-5----0-0-2-4-8-7-3-5-|
 pm|.......|         |.......|         |.......|          |.......|


its a fun song to learn, but takes a bit of time. sorry about the solo, but
im not real experienced yet, so it may come with time.
Suggest correction
Give kudos to tab author, rate the tab!
1 2 3 4 5
comments
print report bad tab
guest
You may want to rate the tab now too:
select rating
Please do not post tabs as comments. Select "correction" instead!