Oops, an error
Loading. Please wait.

Bullet Ride Tab

version 3
version 3

Whole song

Video

4,401 views 9 this week
1 commentread comment
1 2 3 4 5
x 3
add to favorites
launch autoscroll
font size
0
reset
how to read this tab
guitar tuner
Autoscroll
slow
fast
+/-
esc
set tempo
stop
Help us to improve Ultimate-Guitar.com Take our survey!
×
Author
Artist: IN FLAMES
Album:  CLAYMAN
Year:   2000

If you have any questions: my.sweetest.shadows@googlemail.com

Intro:

   Rythm Guitar(Björn)
C  -----------------------------------------------------------------------|
F  -----------------------------------------------------------------------|
A# --4--------------------------------------------------------------------|
D# --4--------------------------------------------------------------------|
G  --2--------------------------------------------------------------------|
C  -----------------------------------------------------------------------|
   Hold it ---------------------------------------------------------------|

   Lead Guitar(Jesper)
C  ----------------------------------------------------------------------|
F  -----------------------------------------------------5555-555---------|
A# -----------------------66-666-66666---77-777-77777---6666-666---------|
D# --4444-444-444-44444---44-444-44444---55-555-55555---7777-777---------|
G  --2222-222-222-22222---22-222-22222---55-555-55555--------------------|
C  ----------------------------------------------------------------------|

******************************************************************************
~~~~~~~~~~~~~~~~~~~~~~~~~~~~~~~~~~~~~~~~~~~~~~~~~~~~~~~~~~~~~~~~~~~~~~~~~~~~~~

   Rythm Guitar(Björn)
C  ----------------------------------------------------------------------|
F  -----------------------------------------------------5555-555---------|
A# -----------------------66-666-66666---77-777-77777---6666-666---------|
D# --4444-444-444-44444---44-444-44444---55-555-55555---7777-777---------|
G  --2222-222-222-22222---22-222-22222---55-555-55555--------------2~----|
C  ----------------------------------------------------------------------|


   Lead Guitar(Jesper)
C  ----------------------------------------------------------------------|
F  -----------------------------------------------------5555-555---------|
A# -----------------------66-666-66666---77-777-77777---6666-666---------|
D# --4444-444-444-44444---44-444-44444---55-555-55555---7777-777---------|
G  --2222-222-222-22222---22-222-22222---55-555-55555--------------------|
C  ----------------------------------------------------------------------|

   Repeat

******************************************************************************
~~~~~~~~~~~~~~~~~~~~~~~~~~~~~~~~~~~~~~~~~~~~~~~~~~~~~~~~~~~~~~~~~~~~~~~~~~~~~~

Verse:

   Rythm Guitar(Björn)
C  ----------------------------------------------------------------------|
F  ----------------------------------------------------------------------|
A# ----------------------------------------------------------------------|
D# ------------------------Doesn´t play anything-------------------------|
G  ----------------------------------------------------------------------|
C  ----------------------------------------------------------------------|


   Lead Guitar(Jesper)
C  ----------------------------------------------------------------------|
F  ----------------------------------------------------------------------|
A# ----------------------------------------------------------------------|
D# --7-9-11---7-9-11--9-12-11--7-9-11---7-9-11--9h11p9-7-----------------|
G  ----------------------------------------------------------------------|
C  ----------------------------------------------------------------------|

   Repeat

******************************************************************************
~~~~~~~~~~~~~~~~~~~~~~~~~~~~~~~~~~~~~~~~~~~~~~~~~~~~~~~~~~~~~~~~~~~~~~~~~~~~~~

Pre-chorus:

   Rythm Guitar(Björn)
C  ----------------------------------------------------------------------|
F  ----------------------------------------------------------------------|
A# ----------------------------------------------------------------------|
D# --4444-4444-4/7-7/9----------------------77---------------------------|
G  --2222-2222-2/5-5/7--2-222222---55-55-77-55---------------------------|
C  ---------------------0-000000---22-33-55------------------------------|


   Lead Guitar(Jesper)
C  ----------------------------------------------------------------------|
F  ----------------------------------------------------------------------|
A# ----------------------------------------------------------------------|
D# --12-11------12-11h12-------------------------------------------------|
G  --------9-------------9-9-10-10---9-9-10-10-12-12-14-14-16-16-17------|
C  ----------------------------------------------------------------------|

   Repeat

******************************************************************************
~~~~~~~~~~~~~~~~~~~~~~~~~~~~~~~~~~~~~~~~~~~~~~~~~~~~~~~~~~~~~~~~~~~~~~~~~~~~~~


Chorus:

   Rythm Guitar(Björn)
C  ----------------------------------------------------------------------------|
F  ----------------------------------------------------------------------------|
A# ----------------------------------------------------------------------------|
D# --444444---------------------2-2222-------444444----------------------------|
G  --222222---444444---555555---0-0000-------222222---444444---555555---7777-9-|
C  -----------222222---333333-------------------------222222---333333---5555-6-|
                                   ****

   Lead Guitar(Jesper)
C  ----------------------------------------------------------------------------|
F  ----------------------------------------------------------------------------|
A# ----------------------------------------------------------------------------|
D# --12-11-9-11-9----9----------9-------9------12-11-9-11-9----------5-7-8~----|
G  ---------------12---12-10-12---10-12---10----------------12-5-7-9-----------|
C  ----------------------------------------------------------------------------|

   Repeat

******************************************************************************
~~~~~~~~~~~~~~~~~~~~~~~~~~~~~~~~~~~~~~~~~~~~~~~~~~~~~~~~~~~~~~~~~~~~~~~~~~~~~~

Verse:

   Rythm Guitar(Björn)
C  ----------------------------------------------------------------------|
F  ----------------------------------------------------------------------|
A# ----------------------------------------------------------------------|
D# ------------------------Doesn´t play anything-------------------------|
G  ----------------------------------------------------------------------|
C  ----------------------------------------------------------------------|


   Lead Guitar(Jesper)
C  ----------------------------------------------------------------------|
F  ----------------------------------------------------------------------|
A# ----------------------------------------------------------------------|
D# --7-9-11---7-9-11--9-12-11--7-9-11---7-9-11--9h11p9-7-----------------|
G  ----------------------------------------------------------------------|
C  ----------------------------------------------------------------------|

   Repeat

******************************************************************************
~~~~~~~~~~~~~~~~~~~~~~~~~~~~~~~~~~~~~~~~~~~~~~~~~~~~~~~~~~~~~~~~~~~~~~~~~~~~~~

Pre-chorus:

   Rythm Guitar(Björn)
C  ----------------------------------------------------------------------|
F  ----------------------------------------------------------------------|
A# ----------------------------------------------------------------------|
D# --4444-4444-4/7-7/9----------------------77---------------------------|
G  --2222-2222-2/5-5/7--2-222222---55-55-77-55---------------------------|
C  ---------------------0-000000---22-33-55------------------------------|


   Lead Guitar(Jesper)
C  ----------------------------------------------------------------------|
F  ----------------------------------------------------------------------|
A# ----------------------------------------------------------------------|
D# --12-11------12-11h12-------------------------------------------------|
G  --------9-------------9-9-10-10---9-9-10-10-12-12-14-14-16-16-17------|
C  ----------------------------------------------------------------------|

   Repeat

******************************************************************************
~~~~~~~~~~~~~~~~~~~~~~~~~~~~~~~~~~~~~~~~~~~~~~~~~~~~~~~~~~~~~~~~~~~~~~~~~~~~~~


Chorus:

   Rythm Guitar(Björn)
C  ----------------------------------------------------------------------------|
F  ----------------------------------------------------------------------------|
A# ----------------------------------------------------------------------------|
D# --444444---------------------2-2222-------444444----------------------------|
G  --222222---444444---555555---0-0000-------222222---444444---555555---7777-9-|
C  -----------222222---333333-------------------------222222---333333---5555-6-|
                                   ****

   Lead Guitar(Jesper)
C  ----------------------------------------------------------------------------|
F  ----------------------------------------------------------------------------|
A# ----------------------------------------------------------------------------|
D# --12-11-9-11-9----9----------9-------9------12-11-9-11-9----------5-7-8~----|
G  ---------------12---12-10-12---10-12---10----------------12-5-7-9-----------|
C  ----------------------------------------------------------------------------|

   Repeat

******************************************************************************
~~~~~~~~~~~~~~~~~~~~~~~~~~~~~~~~~~~~~~~~~~~~~~~~~~~~~~~~~~~~~~~~~~~~~~~~~~~~~~

   Rythm Guitar(Björn)
C  ----------------------------------------------------------------------|
F  -----------------------------------------------------5555-555---------|
A# -----------------------66-666-66666---77-777-77777---6666-666---------|
D# --4444-444-444-44444---44-444-44444---55-555-55555---7777-777---------|
G  --2222-222-222-22222---22-222-22222---55-555-55555--------------2~----|
C  ----------------------------------------------------------------------|


   Lead Guitar(Jesper)
C  ----------------------------------------------------------------------|
F  -----------------------------------------------------5555-555---------|
A# -----------------------66-666-66666---77-777-77777---6666-666---------|
D# --4444-444-444-44444---44-444-44444---55-555-55555---7777-777---------|
G  --2222-222-222-22222---22-222-22222---55-555-55555--------------------|
C  ----------------------------------------------------------------------|

   Repeat

******************************************************************************


   Solo´s missing, I´m sorry


~~~~~~~~~~~~~~~~~~~~~~~~~~~~~~~~~~~~~~~~~~~~~~~~~~~~~~~~~~~~~~~~~~~~~~~~~~~~~~

   Rythm Guitar(Björn)
C  ----------------------------------------------------------------------|
F  -----------------------------------------------------5555-555---------|
A# -----------------------66-666-66666---77-777-77777---6666-666---------|
D# --4444-444-444-44444---44-444-44444---55-555-55555---7777-777---------|
G  --2222-222-222-22222---22-222-22222---55-555-55555--------------2~----|
C  ----------------------------------------------------------------------|


   Lead Guitar(Jesper)
C  ----------------------------------------------------------------------|
F  -----------------------------------------------------5555-555---------|
A# -----------------------66-666-66666---77-777-77777---6666-666---------|
D# --4444-444-444-44444---44-444-44444---55-555-55555---7777-777---------|
G  --2222-222-222-22222---22-222-22222---55-555-55555--------------------|
C  ----------------------------------------------------------------------|

   Repeat

******************************************************************************
~~~~~~~~~~~~~~~~~~~~~~~~~~~~~~~~~~~~~~~~~~~~~~~~~~~~~~~~~~~~~~~~~~~~~~~~~~~~~~

Verse:

   Rythm Guitar(Björn)
C  ----------------------------------------------------------------------|
F  ----------------------------------------------------------------------|
A# ----------------------------------------------------------------------|
D# ------------------------Doesn´t play anything-------------------------|
G  ----------------------------------------------------------------------|
C  ----------------------------------------------------------------------|


   Lead Guitar(Jesper)
C  ----------------------------------------------------------------------|
F  ----------------------------------------------------------------------|
A# ----------------------------------------------------------------------|
D# --7-9-11---7-9-11--9-12-11--7-9-11---7-9-11--9h11p9-7-----------------|
G  ----------------------------------------------------------------------|
C  ----------------------------------------------------------------------|

   Repeat

******************************************************************************
~~~~~~~~~~~~~~~~~~~~~~~~~~~~~~~~~~~~~~~~~~~~~~~~~~~~~~~~~~~~~~~~~~~~~~~~~~~~~~

Pre-chorus:

   Rythm Guitar(Björn)
C  ----------------------------------------------------------------------|
F  ----------------------------------------------------------------------|
A# ----------------------------------------------------------------------|
D# --4444-4444-4/7-7/9----------------------77---------------------------|
G  --2222-2222-2/5-5/7--2-222222---55-55-77-55---------------------------|
C  ---------------------0-000000---22-33-55------------------------------|


   Lead Guitar(Jesper)
C  ----------------------------------------------------------------------|
F  ----------------------------------------------------------------------|
A# ----------------------------------------------------------------------|
D# --12-11------12-11h12-------------------------------------------------|
G  --------9-------------9-9-10-10---9-9-10-10-12-12-14-14-16-16-17------|
C  ----------------------------------------------------------------------|

   Repeat

******************************************************************************
~~~~~~~~~~~~~~~~~~~~~~~~~~~~~~~~~~~~~~~~~~~~~~~~~~~~~~~~~~~~~~~~~~~~~~~~~~~~~~


Chorus:

   Rythm Guitar(Björn)
C  ----------------------------------------------------------------------------|
F  ----------------------------------------------------------------------------|
A# ----------------------------------------------------------------------------|
D# --444444---------------------2-2222-------444444----------------------------|
G  --222222---444444---555555---0-0000-------222222---444444---555555---7777-9-|
C  -----------222222---333333-------------------------222222---333333---5555-6-|
                                   **** palm-muted

   Lead Guitar(Jesper)
C  ----------------------------------------------------------------------------|
F  ----------------------------------------------------------------------------|
A# ----------------------------------------------------------------------------|
D# --12-11-9-11-9----9----------9-------9------12-11-9-11-9----------5-7-8~----|
G  ---------------12---12-10-12---10-12---10----------------12-5-7-9-----------|
C  ----------------------------------------------------------------------------|

   Repeat

******************************************************************************
~~~~~~~~~~~~~~~~~~~~~~~~~~~~~~~~~~~~~~~~~~~~~~~~~~~~~~~~~~~~~~~~~~~~~~~~~~~~~~

   Rythm Guitar(Björn)
C  ----------------------------------------------------------------------|
F  -----------------------------------------------------5555-555---------|
A# -----------------------66-666-66666---77-777-77777---6666-666---------|
D# --4444-444-444-44444---44-444-44444---55-555-55555---7777-777---------|
G  --2222-222-222-22222---22-222-22222---55-555-55555--------------2~----|
C  ----------------------------------------------------------------------|


   Lead Guitar(Jesper)
C  ----------------------------------------------------------------------|
F  -----------------------------------------------------5555-555---------|
A# -----------------------66-666-66666---77-777-77777---6666-666---------|
D# --4444-444-444-44444---44-444-44444---55-555-55555---7777-777---------|
G  --2222-222-222-22222---22-222-22222---55-555-55555--------------------|
C  ----------------------------------------------------------------------|

                        D#---4444---|
   Repeat, after that:  G ---2222---|

******************************************************************************
Suggest correction
Give kudos to tab author, rate the tab!
1 2 3 4 5
comments
print report bad tab
1 comment total.
0 reply
lucasbzerbe 10 Jun 17, 2012 01:42 AM

spot on bro nice job

guest
You may want to rate the tab now too:
select rating
Wanna post a correction for this tab? Suggest correction