Oops, an error
Loading. Please wait.

Clayman Bass Tab

version 1
version 1

Whole song

1,526 views 3 this week
no commentswrite comment
1 2 3 4 5
please rate
add to favorites
launch autoscroll
font size
0
reset
guitar tuner
Autoscroll
slow
fast
+/-
esc
set tempo
stop
Help us to improve Ultimate-Guitar.com Take our survey!
×
Contributor
Mikhailo 35,394
#----------------------------------PLEASE NOTE---------------------------------#
#This file is the author's own work and represents their interpretation of the #
#song. You may only use this file for private study, scholarship, or research. #
#------------------------------------------------------------------------------#

		 IN FLAMES - Clayman (BASS)
                    	From the Album CLAYMAN

Transcribed by: Emil Bygde
	  mail: btekill@hotmail.com

.  - palm mute          /  - slide up to
\  - slide down to      ~  - vibrato
h  - hammer on          b  - bend
p  - pull off            Suffixes for bend
                          ph - pinch harmonic
                           f - full bend    h - half bend
*  - see comment           r - release      t - tap bend
X  - percussion mute       ~ - vibrato bend
@  - slight palm mute     () - ghost note, sustained note

This is one of the few In Flames tabs that actually is tabbed for a
5-string,
this beacuse im tired to tune down my bass, and figured i might not be the
only one...


INTRO (0:00 - 0:22)
|--------------------------------------------------------------
|--------------------------------------------------------------
|--------------------------------------------------------------
|-1---1--1/4---4--4-----------6-------1---1--1/4---4--4--------
|--------------------1--1--1----------------------------111-1-1


---------|
---------|     x 2
---------|
---------|
-111-1-1-|

VERSE 1 (0:23 - 0:44)
|--------------------------------------------------------------
|--------------------------------------------------------------
|--------------------------------------------------------------
|-----------------111-1-1-111-1-1-----------------111-1-1------
|-333-3-3-333-3-3-----------------333-3-3-333-3-3---------111--


----|
----|       x 2
----|
----|
1-11|


PRECHORUS (0:44 - 0:55)
|----------------------------------|
|----------------------------------|
|-0----------2---12321-------------|          x 2
|---0-45654----2-------2/\/\/11----|
|----------------------------------|


VERSE 1 (0:55 - 1:16)
|-------------------------------------------------------------
|-------------------------------------------------------------
|-------------------------------------------------------------
|-----------------111-1-1-111-1-1-----------------111-1-1-----
|-333-3-3-333-3-3-----------------333-3-3-333-3-3---------111-


----|
----|          x 2
----|
----|
4-44|



PRECHORUS (1:17 - 1:28)
|----------------------------------|
|----------------------------------|
|-0----------2---12321-------------|          x 2
|---0-45654----2-------2/\/\/11----|
|----------------------------------|


CHORUS (1:28 - 1:47)
|--------------------------------------------------------------
|--------------------------------------------------------------
|--------------------------------------------------------------
|-1---1--1/4---4--4\--------/6--------1---1--1/4---4--4\-------
|-------------------4---4--4----------------------------444-4-4


---------------------------------------------------------------|
---------------------------------------------------------------|
---------------------------------------------------------------|
----------1---1--1/4---4--4\--------/6--------1---1--1/4---4--4|
-444-4-4--------------------4---4--4---------------------------|


VERSE 2 (1:47 - 2:31)
|-------------------------------------------------------------|
|-------------------------------------------------------------|
|-------h1-0-0000--------h1-0-0000--------h1-0-0000-----------| x 4
|----3-4--------------3-4--------------3-4------------2--4--6-|
|-1-----------------1----------------1------------------------|

VERSE 1 (2:31 - 2:53)
|-------------------------------------------------------------
|-------------------------------------------------------------
|-------------------------------------------------------------
|-----------------111-1-1-111-1-1-----------------111-1-1-----
|-333-3-3-333-3-3-----------------333-3-3-333-3-3---------111-


----|
----|          x 2
----|
----|
4-44|


CHORUS (2:53 - 3:14)
|--------------------------------------------------------------
|--------------------------------------------------------------
|--------------------------------------------------------------
|-1---1--1/4---4--4\--------/6--------1---1--1/4---4--4\-------
|-------------------4---4--4----------------------------444-4-4


---------------------------------------------------------------|
---------------------------------------------------------------|
---------------------------------------------------------------|
----------1---1--1/4---4--4\--------/6--------1---1--1/4---4--4|
-444-4-4--------------------4---4--4---------------------------|


OUTRO (3:14 - END)
|----------------------------------------------------|
|----------------------------------------------------|
|----------------------------------------------------|
|----------------------------------------------------|
|--444-4-4-444-4-4--444-4-4-444-4-4--444-4-4-444-4-4-|
comments
We did not receive enough feedback on this tab! Please rate:
print report bad tab
1 2 3 4 5
I want to post or [tab]
guest
You may want to rate the tab now too:
select rating
Please do not post tabs as comments. Select "correction" instead!