Oops, an error
Loading. Please wait.

Cloud Connected Tab

version 5
12,633 views 6 this week
no commentswrite comment
1 2 3 4 5
excellent!
x 4
add to favorites
launch autoscroll
font size
0
reset
how to read this tab
guitar tuner
Autoscroll
slow
fast
+/-
esc
set tempo
stop
Help us to improve Ultimate-Guitar.com Take our survey!
×
Difficulty
Tuning
intermediate
C G C F A D
Created by Christian H. Tjore (NORWAY!!!)
YouTube: GameKid98
(Please Visit!!)

NOTES: I were requested to do this tab by many people because this is my 
understanding of this song.

If you notice anything that is REALLY WRONG!!, pls contact me on YouTube..
----------------------------------------------------------------------------------------------

/: Slide
x: Palm Mute
^: bend up
*: bend back down

IN FLAMES - CLOUD CONNECTED (GUITAR TAB)

Intro:

|----------------------------------------------|
|----------------------------------------------|
|---------------(keyboard)---------------------|
|----------------------------------------------|
|----------------------------------------------|
|----------------------------------------------|


|---------------------------------|
|---------------------------------|
|---------------------------------|
|--------------5------------3-2---|
|--0-0--0-0----3--0-0--0-0------3-|
|--0-0--0-0----5--0-0--0-0--------|
   x x  x x    ^   x x  x x
               ^(That tone makes it sound heavier than normal power chord)
Riff A

NOTE!!!: You should use downpicking in the following riff!

|-----------------------------------| Play this
|-----------------------------------| 8 times
|-----------------------------------|
|-7-----5/7-----------5---------2---|  x8
|-5-----3/5---8---7---3----0-0-3----|
|---0-0------0---0---0---0----------|
    x x      x   x   x   x x x
NOTE!!!: You should use downpicking in riff a!!!

Verse V1
|-------------------------------------------|
|-------------------------------------------|
|-------------------------------------------|
|--------------------------------------3-2--|
|-0-0--0-0---------------------------------3|
|-0-0--0-0----------------------------------|
  x x  x x
(Riff A) 2x

Riff B (use alternate picking
|------------------------------------------------------------|
|------------------------------------------------------------|
|------------------------------------------------------------|
|--7--7-7-7-7--7-5--5-5-5-5--5-7--7-7-7-7--7-----------------|
|--5--5-5-5-5--5-3--3-3-3-3--3-5--5-5-5-5--5-7-7-7-7-7-7-7-7-|
|--------------------------------------------7-7-7-7-7-7-7-7-|

(Verse V1) x1

Riff C
|--------------------------------------------------| 
|--------------------------------------------------| 
|--------------------------------------------------|
|-7-----5/7-----------5--------5----------------5--|
|-5-----3/5---8---7---3----0-0-3--5-----3-5~-3~-3--|
|---0-0------0---0---0---0--------5-5-5-3-5~-3~----|
    x x      x   x   x   x          x x                               

|------------------------------------------------| 
|------------------------------------------------| 
|------------------------------------------------|
|-7-----5/7-----------5--------5-----------------|
|-5-----3/5---8---7---3----0-0-3--5-----3-5~-3---|
|---0-0------0---0---0---0--------5-5-5-3-5~-3---|
    x x      x   x   x   x          x x           

Chorus riff
Part 1
|---------------------------------------------------------|
|---------------------------------------------------------|
|---------------------------------------------------------|
|---------------------------------------------------------| 
|-3--3-3-3-3--3-3--3-3-3-3--3-7--7-7-7-7--7-7--7-7-7-7--7-|
|-3--3-3-3-3--3-3--3-3-3-3--3-7--7-7-7-7--7-7--7-7-7-7--7-|
Part 2
|--------------------------------------------|
|--------------------------------------------|
|--------------------------------------------|
|--------------------------------------------| 
|-3--3-3-3-3--3-3--3-3-3-3--3-7--7--7--7-5~--|
|-3--3-3-3-3--3-3--3-3-3-3--3-7--7--7--7-5~--|  x2

(Short Brake)

Verse V2
|-----------------------------------------------------|
|-----------------------------------------------------|
|-----------------------------------------------------|
|-----------------------------------5------------3-2--|
|-0-0--0-0----------------0-0--0-0--3--0-0--0-0------3|
|-0-0--0-0----------------0-0--0-0--5--0-0--0-0-------|
  x x  x x                x x  x x     x x  x x

(Riff A) x2

(Riff B) x1

(Verse V2) x1


Chorus Bridge
Use alternate picking
|-------------------------------------------|
|-------------------------------------------|
|-------------------------------------------|
|-3--3-3-3-3--3-2--2-2-2-2--2---------------|
|-1--1-1-1-1--1-0--0-0-0-0--0-5--5-5-5-5--5-|
|-----------------------------5--5-5-5-5--5-|

(Chorus riff Part 1 + Part 2) x2

Solo (PART 1)
|-----------------------------------------------------10------|
|-------------------------------------------------13-^---13^--|
|-------------------------------------------------------------|
|-------------------------------------------------------------|
|-0-0-----------------10-^-10^-10^-10^-10^-*-10-^-------------|
|-0-0--10--^--*----^------------------------------------------|
                           x   x   x 
(really fast!!)
|----------10-12-13-12-13-15-17--18--20^--|
|-10-12-13--------------------------------|
|-----------------------------------------|
|-----------------------------------------|
|-----------------------------------------|
|-----------------------------------------|

Solo (PART 2)
|----------------------------------|
|----------------------------------|
|----------------------------------|
|----------------------------------| 
|--3--5---5-5-5-7-8--7--5-3--5--7--|
|----------------------------------|
          x x                

|----------------------------------|
|----------------------------------|
|----------------------------------| 
|--3--5---5-5-5-7-8--7--5-5--7--8--|
|----------------------------------|
          x x                  


|----------------------------------|
|----------------------------------|
|----------------------------------|
|----------------------------------| 
|--3--5---5-5-5-7-8--7--5-3--5--7--|
|----------------------------------|
          x x                

|------------------------------------|
|------------------------------------|
|------------------------------------| 
|--3--5---5-5-5-7-8--7--8-10--8--10--|
|------------------------------------|
          x x                  

(Chorus Riff)

(Riff A) x4

Ending Riff
|---------------------------|
|---------------------------|
|---------------------------|
|---------------------------|
|---------------------------|
|-0-0--0-0------------------|
|-0-0--0-0------------------|
  x x  x x

---------------------------------------------------------------
Thank you for looking at my version.
Pls visit my youtube channel and leave a comment on my channel.


!!!PLS DO NOT STEAL THIS CONTENT AT ANY MEANS!!!
Tab Copyright: Christian Tjore, GameKid98
Suggest correction
comments
print report bad tab
guest
You may want to rate the tab now too:
select rating
Wanna post a correction for this tab? Suggest correction