Oops, an error
Loading. Please wait.

Cloud Connected Tab

version 6
5,258 views 3 this week
no commentswrite comment
1 2 3 4 5
please rate
add to favorites
launch autoscroll
font size
0
reset
how to read this tab
guitar tuner
Autoscroll
slow
fast
+/-
esc
set tempo
stop
Help us to improve Ultimate-Guitar.com Take our survey!
×
Author
Difficulty
Tuning
intermediate
C F A# D# G C
Cloud Connected
In Flames
Reroute to Remain
2002

Tuning: C Standard (C F A# D# G C). You can play it in Drop C 
if you want to, just move every note except those on the C string
down two frets.

A lot of the tabs for this song are close, but none of them seemed
right on it to me, especially during the solo and chorus. I don’t have
guitar pro, so if this is close to one of those tabs, I claim ignorance.

Anyway, here’s my take. Let me know what you think!

INTRO:

Synth, then:

|Guitar 1
|--------------------------------------|
|--------------------------------------|
|--------------------------------------|
|---------------5---------------9-7-5--|
|-2-2---2-2-----3-2-2---2-2------------|
|-0-0---0-0-----5-0-0---0-0------------|
| * *   * *       * *   * *
|Guitar 2
|--------------------------------------|
|--------------------------------------|
|--------------------------------------|
|---------------5----------------------|
|-2-2---2-2-----3-2-2---2-2-----10-9-7-|
|-0-0---0-0-----5-0-0---0-0------------|
  * *   * *       * *   * *


RIFF 1:

|----------------------------------|
|----------------------------------|
|----------------------------------|
|----------------------------------|
|-7-----5h7---10---9----------10/9-|
|---0-0-----0----0---0-10-0-8------|
|   * *     *    *   *    * * 
|----------------------------------|
|----------------------------------|
|----------------------------------|
|-9-----7/9------------------------|
|-7-----5/7---10---9----------10p9-|
|---0-0-----0----0---0-10-0-8------| x8
    * *     *    *   *    * *


FILL A:

|-----------|
|-----------|
|-----------|
|-----------|
|-2-2---2-2-|
|-0-0---0-0-|
  * *   * *      

Drums, synth, vocals… then:

FILL B: 

|--------|
|--------|
|--------|
|--------|
|-10-9-7-|
|--------|
|
|--------|
|--------|
|--------|
|-9-7-5--|
|--------|
|--------|
                 
RIFF 1 x2

FILL C: 

|----------------------------------|
|----------------------------------|
|----------------------------------|
|-9-9-9-9-7-7-7-7-9-9-9-9----------|
|--7-7-7-7-5-5-5-5-7-7-7-79-9-9-9--|
|--------------------------7-7-7-7-|
|
|----------------------------------|
|----------------------------------|
|----------------------------------|
|-999999997777777799999999---------|
|-77777777555555557777777799999999-|
|-------------------------77777777-|

FILL A
FILL B


RIFF 2

Both Guitars:
|-------------------------------------------------------------------|
|-------------------------------------------------------------------|
|-------------------------------------------------------------------|
|-----------------------------------------------------------7~~/9~~-|
|-7-----5h7---10---9----------10h12-12-------10h12----------5~~/7~~-|
|---0-0-----0----0---0-10-0-8----------10-10-------10-10-10---------|
    * *     *    *   *    * *          *  *        *  *  *

|-------------------------------------------------------------------|
|-------------------------------------------------------------------|
|-------------------------------------------------------------------|
|-----------------------------------------------------------12------|
|-7-----5h7---10---9----------10h12-12-------10h12----------10------|
|---0-0-----0----0---0-10-0-8----------10-10-------10-10-10---------|
    * *     *    *   *    * *          *  *        *  *  *


CHORUS:

(10s, 12s and 13s, not 0s, 1s, 2s, and 3s. 
The x means mute the string, for those who don’t know.)

|-----------------------------------------------------------|
|-13~~1212~10101013~~1212~1010108~~1010~1212128~1010~121212-|
|-x---x-x--x-x-x-x---x-x--x-x-x-x--x-x--x-x-x-x-x-x--x-x-x--|
|-10~~9-9~~7-7-7-10~~9-9-~7-7-7-5~~7-7~~9-9-9-5~7-7~~9-9-9--|
|-----------------------------------------------------------|
|-----------------------------------------------------------|
|
|--------------------------------------|
|--------------------------------------|
|--------------------------------------|
|-5~~55~5555~~55~5559~~99~9999~~99~999-|
|-5~~55~5555~~55~5559~~99~9999~~99~999-|
|-3~~33~3333~~33~3337~~77~7777~~77~777-|

|----------------------------------------------------------------|
|-13~~1212~10101013~~1212~1010108~~1010-101212101010101010101010-|
|-x---x-x--x-x-x-x---x-x--x-x-x-x--x-x--x-x-x-x-x-x-x-x-x-x-x-x--|
|-10~~9-9-~7-7-7-10~~9-9-~7-7-7-5~~7-7--7-9-9-7-7-7-7-7-7-7-7-7--|
|----------------------------------------------------------------|
|----------------------------------------------------------------|
|
|--------------------------------------|
|--------------------------------------|
|--------------------------------------|
|-5~~55~5555~~55~5559~~99~9997~~77~777-|
|-5~~55~5555~~55~5559~~99~9997~~77~777-|
|-3~~33~3333~~33~3337~~77~7775~~55~555-|  x2

FILL A
INTRO
RIFF 1 x2
FILL C
FILL A
INTRO

FILL D:

|--------------------------|
|--------------------------|
|--------------------------|
|-9~~~~~~~9~99~99~7~~~~~~~-|
|-9~99~99~9~~~~~~~7~77~77~-|
|-7~~~~~~~7~~~~~~~5~~~~~~~-|
|
|--------------------------|
|--------------------------|
|--------------------------|
|-9~99~99~9~99~99~7~77~77~-|
|-9~99~99~9~99~99~7~77~77~-|
|-7~77~77~7~77~77~5~55~55~-|

CHORUS

SOLO:
                          
|-----------------------------------------|
|-----------------------------------------|
|--------------------------9-9-9-9p7-9v~~-|
|-----------------------------------------|
|-----------7b10r7p5~7v~~~----------------|
|-----------------------------------------|
|                            * *
|--------------------------------------|
|--------------------------------------|
|--------------------------------------|
|---------------5---------------9-7-5--|
|-2-2---2-2-----3-2-2---2-2------------|
|-0-0---0-0-----5-0-0---0-0------------|
| * *   * *       * *   * *


|----15----------------------17--19--20--22--24v~~~~~~~~~-|
|-17----17v~~-17-19-20-19-20------------------------------|
|---------------------------------------------------------|
|---------------------------------------------------------|
|---------------------------------------------------------|
|---------------------------------------------------------|
|                               
|--------------------------------------|
|--------------------------------------|
|--------------------------------------|
|---------------5----------------------|
|-2-2---2-2-----3-2-2---2-2------------|
|-0-0---0-0-----5-0-0---0-0------------|
| * *   * *       * *   * *

(If your guitar doesn’t have a 24th fret, just bend the 22, 
or do a pinch harmonic on the 17th fret of the G string 
(normally B string). Jesper’s own guitar only had 22 frets, 
so I’d assume it’s actually one of those options.)

POST-SOLO (Four guitars)

|-----------------------------------|
|-----------------------------------| 
|-2~~-4~~~~~~~~~~~~-4h5-7-5-4-2-4-5-|  
|-----------------------------------|  
|-----------------------------------|    
|-----------------------------------|     
|                                          
|-----------------------------------|       
|-----------------------------------|        
|-----------------------------------|         
|-4~~-5~~~~~~~~~~~~-5h7-9-7-5-4-5-7-|          
|-----------------------------------|          
|-----------------------------------|          
|  These 5s are natural harmonics and make the bell sound. 
|------------------------------------|         
|-----------------------5*--------5*-|         
|-----5*------------------5*----5*---|         
|-5*------------------------5*5*-----|         
|------------------------------------|         
|------------------------------------|         
|                                             
|--------------------------------------|     
|--------------------------------------|    
|--------------------------------------|  
|-5~~55~5559~~99~9997~~77~7775~~55~555-| 
|-5~~55~5559~~99~9997~~77~7775~~55~555-| 
|-3~~33~3337~~77~7775~~55~5553~~33~333-|


|-----------------------------------|
|-----------------------------------|
|-2~~-4~~~~~~~~~~~~-4h5-7-5-4-2-4-5-|
|-----------------------------------|
|-----------------------------------|
|-----------------------------------|
|
|-----------------------------------|
|-----------------------------------|
|-----------------------------------|
|-4~~-5~~~~~~~~~~~~-5h7-9-7-5-4-5-7-|
|-----------------------------------|
|-----------------------------------|
|
|------------------------------------|
|-----5*----------------5*--------5*-|
|-------------------------5*----5*---|
|-5*------------------------5*5*-----|
|------------------------------------|
|------------------------------------|
|
|--------------------------------------|
|--------------------------------------|
|--------------------------------------|
|-5~~55~5559~~99~9997~~77~777----------|
|-5~~55~5559~~99~9997~~77~777----------|
|-3~~33~3337~~77~7775~~55~5553v~5v~7v~-|    


|-----------------------------------|
|-----------------------------------|
|-2~~-4~~~~~~~~~~~~-4h6-7-6-4-2-4-6-|
|-----------------------------------|
|-----------------------------------|
|-----------------------------------| 
|
|--------------------------------------------|
|--------------------------------------------|
|-7~~-9~~~~~~~~~~~~-7h9-12-11-12p11p9-7-9-11-|
|--------------------------------------------|
|--------------------------------------------|
|--------------------------------------------|
|
|------------------------------------|
|-----5*-----------------------------|
|------------------------------------|
|-5*---------------------------------|
|------------------------------------|
|------------------------------------|
|
|--------------------------------------|
|--------------------------------------|
|--------------------------------------|
|-5~~55~5559~~99~9997~~77~7775~~55~555-|
|-5~~55~5559~~99~9997~~77~7775~~55~555-|
|-3~~33~3337~~77~7775~~55~5553~~33~333-|


|-----------------------------------|
|-----------------------------------|
|-2~~-4~~~~~~~~~~~~-4h6-7-6-4-7-6-4-|
|-----------------------------------|
|-----------------------------------|
|-----------------------------------|
|
|-----------------------------------------|
|-----------------------------------------|
|-7~~-9~~~~~~~~~~~~-7h9-12-11-9-12-11-9---|
|-----------------------------------------|
|-----------------------------------------|
|-----------------------------------------|
|
|------------------------------------|
|-----5*----------------5*----5*-----|
|-------------------------5*----5*---|
|-5*------------------------5*----5*-|
|------------------------------------|
|------------------------------------|
|
|--------------------------------------|
|--------------------------------------|
|--------------------------------------|
|-5~~55~5559~~99~9997~~77~777----------|
|-5~~55~5559~~99~9997~~77~77710v9v~7v~-|
|-3~~33~3337~~77~7775~~55~555----------|   

CHORUS 

The guitar doing the harmonics does this at the beginning of this chorus:

|--------|
|-----5*-|
|--------|
|-5*-----|
|--------|
|--------|

RIFF 1 x4
FILL A

And that’s it! Please rate, and feel free to comment!


TAB LEGEND

Inside tab:

/ - Slide 
~~~ - Let ring
* - Natural harmonic
h - Hammeron
p - Pulloff
b - Bend (previous note until it sounds like the next)
r - release (return bent string to original position while holding down).

Below tab:

* - Palm mute

Tab itself:

|---
|---
|         - Shows parts where two or more guitars play different things
|---        simultaneously. The top is always lead, and the bottom   
|---        is always rhythm; play whichever part you like more if 
            you’re playing by yourself.



Suggest correction
Give kudos to tab author, rate the tab!
1 2 3 4 5
comments
print report bad tab
guest
You may want to rate the tab now too:
select rating
Please do not post tabs as comments. Select "correction" instead!