Oops, an error
Loading. Please wait.

Come Clarity Tab

version 3
version 3

Intro

Solo

Whole song

10,696 views 3 this week
5 commentsread comments
1 2 3 4 5
accurate
x 5
add to favorites
launch autoscroll
font size
0
reset
how to read this tab
guitar tuner
Tab Pro tools
  • play this tab
  • loop segment
  • change instrument
  • show fretboard
  • metronome
×
Best way to learn
"Come Clarity"
Autoscroll
slow
fast
+/-
esc
set tempo
stop
Difficulty
novice
INTRO: (acoustic)

riff1a:

|-------------------------------------------------------------------|
|-------7--------------8-7-------------------------------------7h8--|
|-----9----9---------9-----9-7---------7-----7---------7-----9------|
|---9--------9-----9-----------10----7-----7---7-----7-----9--------|
|-7------------7-7----------------10-----9-------9-5-----7----------|
|-------------------------------------------------------------------|

riff1b:

|----------------------------------------------------------------3--|
|-------7--------------8-7-------------------------------------3----|
|-----9----9---------9-----9-7---------7-----7---------7-----5------|
|---9--------9-----9-----------10----7-----7---7-----7-----5--------|
|-7------------7-7----------------10-----9-------9-5-----3----------|
|-------------------------------------------------------------------|

repeat riff1


riff2a:

|-------------------------------------------------------------|
|-------------------------------------------------------------|
|-9-------12--11~---9~-------9-------------9----9-11-9-11/12--|
|----9~------------------12----12-10~--------12---------------|
|-------------------------------------------------------------|
|-------------------------------------------------------------|

riff2b:

|-----------------------------------------------------------------|
|---------------------------------------------10-12-13~-12-10-----|
|-9-------12--11~---9~-------9-11-12~-11-9--------------------12--|
|----9~------------------12----------------12---------------------|
|-----------------------------------------------------------------|
|-----------------------------------------------------------------|

VERSE: (acoustic)

riff1a

riff1b

riff2a:

|----------------------------------------------------------------------|
|-7-----7-----7---7-----7-----7/8------8------8------7------7------7---|
|---9-----9-----9---9-----9----------9------9---9------9------9------9-|
|-----9-----9---------9-----9-----10-----10-------10-----10-----10-----|
|----------------------------------------------------------------------|
|----------------------------------------------------------------------|

repeat riff2a


CHORUS: (the intervals are for clarity)


|----------|----------|----------|----------|
|----------|----------|----------|----------|
|----------|----------|-19--17---|-16-------|
|----------|----------|----------|-----17---|
|----------|----------|----------|----------|
|----------|----------|----------|----------|
|                                           |
|                                           |
|----------|----------|----------|----------|
|----------|----------|----------|----------|
|----------|----------|----------|-77777777-|
|-99999999-|-99999999-|-99999999-|-55555555-|
|-77777777-|-77777777-|-77777777-|----------|
|----------|----------|----------|----------|


|----------|----------|----------|----------|
|----------|----------|-20~------|-(20)-----|
|-----19---|-(19)-----|----------|----------|
|-19-------|----------|----------|----------|
|----------|----------|----------|----------|
|----------|----------|----------|----------|
|                                           |
|                                           |
|----------|----------|----------|----------|
|----------|----------|----------|----------|
|----------|----------|----------|----------|
|-77777777-|-77777777-|----------|-55555555-|
|-55555555-|-55555555-|-77777777-|-33333333-|
|----------|----------|-55555555-|----------|


repeat CHORUS

BREAK: (acoustic)

riff2a

VERSE 2:

riff1a

riff1b

riff2a

riff2b:


|----------------------------------------------------|
|-7-----7-----7---7-----7-----7/8------8------8------|
|---9-----9-----9---9-----9----------9------9---9----|
|-----9-----9---------9-----9-----10-----10-------10-|
|----------------------------------------------------|
|----------------------------------------------------|

(distorted)
|------------------|
|------------------|
|------------------|
|-5-5-5-5-5-5-5-5--|
|-3-3-3-3-3-3-3-3--|
|------------------|
  ...............


CHORUS x 2


SOLO:

|-----3--------------------------------------|
|--------------------------------------------|
|--------------------------------------------|
|-5-----7--9------------5---4---5---5-----7--|
|-3-----5--7---5--3--2--3---2---3-3-3-3-3-5--|
|--------------------------------------------|
                                  .   ...

|---------------------------------------------------------------------------|
|---------------------------------------------------------------------------|
|-----------------------------11-12--------11-12--------11--12--11~---------|
|-------------------12-14~----------14~----------12~----------------14-12~--|
|----------12-14-15---------------------------------------------------------|
|-12-14-15------------------------------------------------------------------|
| |___________________|                                                     |
|           |_play this part real fast                                      |
|---------------------------------------------------------------------------|
|---------------------------------------------------------------------------|
|---------------------------------------------------------------------------|
|-(7)------------------9------------5---------------------------7-----------|
|-(5)------------------7------------3------------5--------------5-----------|
|------------------------------------------------3--------------------------|


|----------------------------------------------------------------------22~~--|
|-20-19-20-----20-19-20-----20-19-20-----20-19-20-20/22\20-20-19-20-22-------|
|----------21~----------19~----------19~-------------------------------------|
|----------------------------------------------------------------------------|
|----------------------------------------------------------------------------|
|----------------------------------------------------------------------------|
|                                                                            |
|                                                                            |
|----------------------------------------------------------------------------|
|----------------------------------------------------------------------------|
|----------------------------------------------------------------------------|
|-9---------------------5----------------------------------------------7-----|
|-7---------------------3----------------5-----------------------------5-----|
|----------------------------------------3-----------------------------------|


|-/22~~--22---------------------------------------------------------------|
|-----------20-19-20-22~-20-19-20-----20-19-20-----20-19-20-----20-19-20--|
|---------------------------------19~----------19~----------21~-----------|
|-------------------------------------------------------------------------|
|-------------------------------------------------------------------------|
|-------------------------------------------------------------------------|
|                                                                         |
|                                                                         |
|-------------------------------------------------------------------------|
|-------------------------------------------------------------------------|
|-------------------------------------------------------------------------|
|--9-----5-----------------------------------------7----------------------|
|--7-----3---------------------5-------------------5----------------------|
|------------------------------3------------------------------------------|

        sustain note
|--/20~~----------------------------------------------------(20)--|
|-----------------------------------------------------------------|
|-----------------------------------------------------------------|
|-----------------------------------------------------------------|
|-----------------------------------------------------------------|
|-----------------------------------------------------------------|
|                                                                 |
|                                                                 |
|-----------------------------------------------------------------|
|-----------------------------------------------------------------|
|--------11--11-11b(12)r11---------12-11----------12-11-----------|
|-12--14-------------------12~-----------14~---14-------14~---14\-|
|-----------------------------------------------------------------|
|-----------------------------------------------------------------|
|                                                                 |
|                                                                 |
|-----------------------------------------------------------------|
|-----------------------------------------------------------------|
|-----------------------------------------------------------------|
|-9-------------5---------------------------------7----------(9)--|
|-7-------------3------------------5--------------5----------(7)--|
|----------------------------------3------------------------------|


riff1a

riff1b

CHORUS x 4


END


Tabulature legend:

.  - palm mute           Suffixes for bend (b):
\  - slide down to       b() -  bend to (note)
/  - slide up to         ^  - Hold bend    r release bend
h  - hammer on           ~  - vibrato bend
p  - pull off
t  - tap
ph - pinched harmonic    Suffixes for tremolo bar (tr""):
<> - natural harmonic    ~  - vibrato
x  - Stuccatto           /  - pull tremolo bar
,  - slight palm mute    \  - push tremolo bar (drop)
~  - vibrato
b  - bend
*  - see comment
() - ghost note, sustained note
comments
print report bad tab
5 comments total. Showing first comments.
0 reply
Metal_man_14 wrote on July 13 2006, 06:14 am

Not too bad, is in wrong tuning and solo is slightly wrong, but good try.

0 reply
006schecter wrote on October 30 2006, 10:27 am

sounds good :)

0 reply
Logan_B wrote on August 17 2008, 07:30 pm

Lol it sounds like nothing especially the start....t.otally off

I want to post or [tab]
guest
You may want to rate the tab now too:
select rating
Please do not post tabs as comments. Select "correction" instead!