Oops, an error
Loading. Please wait.

Come Clarity Tab

version 4
version 4
15,657 views 6 this week
11 commentsread comments
1 2 3 4 5
accurate
x 8
add to favorites
launch autoscroll
font size
0
reset
how to read this tab
guitar tuner
Autoscroll
slow
fast
+/-
esc
set tempo
stop
Help us to improve Ultimate-Guitar.com Take our survey!
×
Author
Difficulty
intermediate
tuned to drop A#

intro
|-------0~--------------1-0-------|
|-----3----3---3------3-----3-1-0-|
|---2--------2------2-------------|
|-0---------------0---------------|
|---------------------------------|
|---------------------------------|
|
|----------------------------0h1p0-|
|-----1----1----1------------------|
|---0----0----0------0----0-0------|
|-3----2----2------0----0----------|
|----------------3----2------------|
|----------------------------------|
|
|-------0~--------------1-0-------|
|-----3----3---3------3-----3-1-0-|
|---2--------2------2-------------|
|-0---------------0---------------|
|---------------------------------|
|---------------------------------|
|
|----------------------------1~-|
|-----1----1----1---------------|
|---0----0----0------0----0-0---|
|-3----2----2------0----0-------|
|----------------3----2---------|
|-------------------------------|   
repeats one more time, then this plays over the top of it
|
|-------------------------|
|-------------------------|
|-7-10~-10-9-7-5-5h7p5----|
|----------------------8~-|
|-------------------------|
|-------------------------|
|
|---------------------------------|
|---------------------------------|
|-7-5-7-9-7-5-7---7-10~-10-9-7----|
|------------------------------10-|
|---------------------------------|
|---------------------------------|
|
|----------------------------------|
|----------------8-10-11~-10-8-----|
|-7-9-10~-9-7------------------10~-|
|-------------10-------------------|
|----------------------------------|
|----------------------------------|

verses (both are the same)
|-------0~--------------1-0-------|
|-----3----3---3------3-----3-1-0-|
|---2--------2------2-------------|
|-0---------------0---------------|
|---------------------------------|
|---------------------------------|
|
|----------------------------0h1p0-|
|-----1----1----1------------------|
|---0----0----0------0----0-0------|
|-3----2----2------0----0----------|
|----------------3----2------------|
|----------------------------------|
|
|-------0~--------------1-0-------|
|-----3----3---3------3-----3-1-0-|
|---2--------2------2-------------|
|-0---------------0---------------|
|---------------------------------|
|---------------------------------|
|
|----------------------------1~-|
|-----1----1----1---------------|
|---0----0----0------0----0-0---|
|-3----2----2------0----0-------|
|----------------3----2---------|
|-------------------------------|  then repeat whole thing once more


chorus
|-----------------------------------------|
|-----------------------------------------|
|-7------------999910101010-5-------------|
|-7-(16 times)-999910101010-5-(8 times)---|
|-5------------77778-8-8-8--3-------------|
|-----------------------------------------|
|
|----------------------------------------|
|----------------------------------------|
|-3------------2-----------5-------------|
|-3-(16 times)-2-(8 times)-5-(8 times)---| entire thing repeats once
|-1------------0-----------3-------------|
|----------------------------------------|
on last note of chorus, hold out the last chord til verse starts again

breakdown
|------------------------------------|
|------------------------------------|
|------------------------------------|
|-8~-10~-12~--10-8-7-5~-3~--3-3-33-3-|
|-8~-10~-12~--10-8-7-5~-3~--3-3-33-3-|
|-8~-10~-12~--10-8-7-5~-3~--3-3-33-3-|
                              pm..

solo
|---------------------------------------------------|
|---------------------------------------------------|
|-7~-7-9-10-7~--7-9-10-----10-9-10~-9h10p9~-9-7-----|
|----------------------10~----------------------10~-|
|---------------------------------------------------|
|---------------------------------------------------|
|
|-----------------------------------------|
|-18-17-18-15~--18-17-18-----18-17-18-----|
|------------------------17~----------17~-|
|-----------------------------------------|
|-----------------------------------------|
|-----------------------------------------|
|
|-------------------/20~--21b-21-18-17-18-20----|
|-18-17-18-20-19-20-----------------------------|
|-----------------------------------------------|
|-----------------------------------------------|
|-----------------------------------------------|
|-----------------------------------------------|
|
|-18-17-18-------------------------------------------------|
|----------18-17-18-----18-17-18-----18-17-18-----18-17-18-|
|-------------------17~----------17~----------19~----------|
|----------------------------------------------------------|
|----------------------------------------------------------|
|----------------------------------------------------------|
|
|-----------------------------------|
|-----------------------------------|
|----7-9-10-9-7----10-9-7~--10-9-7~-|
|-10------------10------------------|
|-----------------------------------|
|-----------------------------------|

intro once more, then chorus for the rest of the song



thats it. enjoy.
Suggest correction
comments
print report bad tab
11 comments total. Showing first comments.
0 reply
Ash on fires 10 wrote on December 12 2006, 07:10 pm

Most of it is perfect but there is an acoustic bit right after the first chorus that is different from the intro riff.

0 reply
Dimebag_abbott 30 wrote on December 30 2006, 11:06 am

insanely good, 5 stars

0 reply
Death-Fly 10 wrote on January 17 2007, 04:31 pm

its great but not in a# its in b

guest
You may want to rate the tab now too:
select rating
Please do not post tabs as comments. Select "correction" instead!