Oops, an error
Loading. Please wait.

Crawl Through Knives Tab

version 1
version 1

Whole song

55,301 views 39 this week
6 commentsread comments
1 2 3 4 5
x 7
add to favorites
launch autoscroll
font size
0
reset
how to read this tab
guitar tuner
×
Best way to learn
"Crawl Through Knives"
Autoscroll
slow
fast
+/-
esc
set tempo
stop
Author
Difficulty
Tuning
intermediate
A# F A# D# G C
CRAWL THROUGH KNIVES
As recorded by In Flames
(From the Album COME CLARITY)
Transcribed by Seth Shadows {F.u.c.kallyourfalsebeauty@hotmail.com}
Words and Music by In Flames
Arranged by In Flames
[Gtr I]  (A# F A# D# G C) - 'Rhythm Left'
[Gtr II] (A# F A# D# G C) - 'Rhythm Right'
[Gtr III](A# F A# D# G C) - 'Lead Left'
[Gtr IV] (A# F A# D# G C) - 'Lead Right'
[Gtr V]  (A# F A# D# G C) - 'Lead Neutral (w/Wah)'

[Note] 
This is my powertab exported as a text tab for those without powertab

[Intro]
Q=208
4/4
[Gtr. I, II]
   ~~ PM  PM  PM    PM   PM   PM             ~         ~~~~~~~~~~        ~~
                                 |8-|
   Q  E E E E E E   E  E E  E E  E  E  E E   Q  E E E  Q.      Q   E E E Q.
C |-----------------|------------------------|----------------|-----------------|
G |-----------------|------------------------|----------------|-----------------|
D#|-----------------|------------------------|----------------|-----------------|
A#|-----------------|------------------------|----------10----|-----------------|
F |-/5----5---7---8-|---10---12---10h12p10-8-|------8p7-------|--------8-7------|
A#|-----0---0---0---|-0----0----0------------|-8--8-----------|-10--10-----8----|

[Gtr I]
   ~~ PM  PM  PM    PM   PM   PM
                                 |8-|
   Q  E E E E E E   E  E E  E E  E  E  E E

C |-----------------|------------------------|
G |-----------------|------------------------|
D#|-----------------|------------------------|
A#|-----------------|------------------------|
F |-/5----5---7---8-|---10---12---10h12p10-8-|
A#|-----0---0---0---|-0----0----0------------|

[Gtr II]
   ~~ PM  PM  PM    PM   PM   PM
                                 |8-|
   Q  E E E E E E   E  E E  E E  E  E  E E

C |-----------------|------------------------|
G |-----------------|------------------------|
D#|-----------------|------------------------|
A#|-----------------|------------------------|
F |-\5----5---7---8-|---10---12---10h12p10-8-|
A#|-----0---0---0---|-0----0----0------------|

       PM     PM       PM
  Q  E E Q  E E   Q  E E E  E   E   E
C |---------------|-----------------------|
G |---------------|-----------------------|
D#|---------------|-----------------------|
A#|-8--8---3--3---|-5--5---7--7---7---7---|
F |-8--8-0-3--3-0-|-5--5-0-8--8---8---8---|
A#|-8--8-0-3--3-0-|-5--5-0-7--7---7---7---|

       PM     PM
  Q  E E Q  E E   Q  E E E  E   E   E
C |---------------|-----------------------|
G |---------------|-----------------------|
D#|---------------|-----------------------|
A#|-8--8---3--3---|-5--5------------------|
F |-8--8-0-5--5-0-|-5--5-0-0-[7]-[7]-[7]--|
A#|-8--8-0-3--3-0-|-5--5-0-0--------------|

        PM    PM    PM      PM    PM    PM
                                           |8-|
      Q   E  E  E  E  E  E    E  E  E  E  E  E  E  E  E
C |------------------------|----------------------------|
G |------------------------|----------------------------|
D#|------------------------|----------------------------|
A#|---0--------------------|----------------------------|
F |---0------5-----7-----8-|----10----12----10h12p10--8-|
A#|---0---0-----0-----0----|--0-----0-----0-------------|
 
        PM    PM    PM      PM    PM    PM
                                           |8-|
     Q   E  E  E  E  E  E    E  E  E  E  E  E  E  E  E
C |------------------------|----------------------------|
G |------------------------|----------------------------|
D#|------------------------|----12----14----10h12p10-10-|
A#|-/12-----12----14----15-|----------------------------|
F |------------------------|----------------------------|
A#|------12----12----12----|-12----12----12-------------|

   ~~                   ~~
   Q    E E  E  Q.      Q     E  E  E  Q.
C |--------------------|---------------------------|
G |--------------------|---------------------------|
D#|--------------10----|---------------------------|
A#|---------------x----|---------------------------|
F |---------8p=7--8----|-----------8--7--8---------|
A#|--8----8------------|-10----10--------8---------|
 
   ~~     PM    ~~~        PM    PM
   Q    E E  E  Q.      E  E  E  E  E  E   E  E
C |--------------------|---------------------------|
G |--------------------|---------------------------|
D#|-10--/10-9-10--9----|-------------12-12---------|
A#|--------------------|-12----14-----------15-14--|
F |--------------------|---------------------------|
A#|--------------------|----12----12---------------|

    PM--|      PM    PM      PM    PM    PM
                                            |8-|
    E E  E  E  E  E  E  E    E  E  E  E  E  E  E  E  E
C |-------------------------|----------------------------|
G |-------------------------|----------------------------|
D#|-------------------------|----------------------------|
A#|-------------------------|----------------------------|
F |---0-0--0--5-----7-----8-|----10----12----10h12p10--8-|
A#|---0-0--0-----0-----0----|--0-----0-----0-------------|
 
         PM    PM    PM      PM    PM    PM
                                            |8-|
    Q    E  E  E  E  E  E    E  E  E  E  E  E  E  E  E
C |-------------------------|----------------------------|
G |-------------------------|----------------------------|
D#|-------------------------|----12----14----10h12p10-10-|
A#|-/12------12----14----15-|----------------------------|
F |-------------------------|----------------------------|
A#|-------12----12----12----|-12----12----12-------------|

           PM         PM
   Q    E  E  Q     E E    q     E E  E  E E E a
C |-----------------------|------------------------|
G |-----------------------|------------------------|
D#|-----------------------|------------------------|
A#|--8----8-----3-----3---|--5-----7p5---------5---|
F |--8----8--0--3-----3-0-|--5----------8p=7p5---0-|
A#|--8----8--0--3-----3-0-|--5-------------------0-|
 
   ~~      PM              PM
   Q    E  E  E  E  E E    E  E  E E  E  E E E a
C |-----------------------|------------------------|
G |-----------------------|------------------------|
D#|-10---------12-12-10-9-|------------------------|
A#|-----/15---------------|-12-12-10p9-------------|
F |-----------------------|------------12p10-8p7-0-|
A#|---------12------------|----------------------0-|

[Verse I]
[Gtrs I, II]
              PM--|                               PM--|
    E E q   E E E E   E E E E E E E E   E E q   E E E E   E E E E E E E E
C |------------------|-----------------|-----------------|------------------|
G |------------------|-----------------|-----------------|------------------|
D#|------------------|-----------------|-----------------|---------5-5-5-5--|
A#|------0-----------|-5-5-5-5S8-8-8-8-|-----0-----------|-5-5-5-5-5-5-5-5--|
F |--0-0-0-----0-0-0-|-5-5-5-5S8-8-8-8-|-0-0-0-----0-0-0-|-5-5-5-5-3-3-3-3--|
A#|--0-0-0-----0-0-0-|-5-5-5-5S8-8-8-8-|-0-0-0-----0-0-0-|-5-5-5-5-0-0-0-0--|

[Gtr V]  
(Background, Low Volume notes for a "Ticking" sound. Use Wah.
   E E E E E E E E   E E E E E E E E   E E E E E E E E   E E E E E E E E
C |------------------|-----------------|-----------------|------------------|
G |------------------|-----------------|-----------------|------------------|
D#|--x-x-x-x-x-x-x-x-|-x-x-x-x-x-x-x-x-|-x-x-x-x-x-x-x-x-|-x-x-x-x-x-x-x-x--|
A#|--x-x-x-x-x-x-x-x-|-x-x-x-x-x-x-x-x-|-x-x-x-x-x-x-x-x-|-x-x-x-x-x-x-x-x--|
F |--x-x-x-x-x-x-x-x-|-x-x-x-x-x-x-x-x-|-x-x-x-x-x-x-x-x-|-x-x-x-x-x-x-x-x--|
A#|------------------|-----------------|-----------------|------------------|

[Gtr I]
            PM--|
  E E q   E E E E   E E E E E E E E
C |-----------------|-----------------|
G |-----------------|-----------------|
D#|-----------------|-----------------|
A#|-----0-----------|-5-5-5-5S8-8-8-8-|
F |-0-0-0-----0-0-0-|-5-5-5-5S8-8-8-8S|
A#|-0-0-0-----0-0-0-|-5-5-5-5S8-8-8-8-|
 
[Gtr II]
              PM--|
    E E q   E E E E   E E E E E E E E
C |-----------------|-----------------|
G |-----------------|-----------------|
D#|-----------------|-----------------|
A#|-----0-----------|-5-5-5-5S8-8-8-8-|
F |-0-0-0-----0-0-0-|-5-5-5-5S8-8-8-8-|
A#|-0-0-0-----0-0-0-|-5-5-5-5S8-8-8-8-|

[Gtr V]
    E E E E E E E E   E E E E E E E E
C |-----------------|-----------------|
G |-----------------|-----------------|
D#|-x-x-x-x-x-x-x-x-|-x-x-x-x-x-x-x-x-|
A#|-x-x-x-x-x-x-x-x-|-x-x-x-x-x-x-x-x-|
F |-x-x-x-x-x-x-x-x-|-x-x-x-x-x-x-x-x-|
A#|-----------------|-----------------|

      ~~~~          ~~~~~~~~~~~~~~~~~~~~~~
      Q.     Q.     Q     Q.     Q.     Q
C |--------------------|---------------------|
G |--------------------|--------------------o|
D#|--------------------|---------------------|
A#|--------------------|---------------------|
F |---7------5------3--|-/5------3------1---o|
A#|--------------------|---------------------|
 
      ~~~~~~~~~~~~~~~~~~~~~~~~~~~~~~
      Q.     Q.     Q     Q.     Q.     Q
C |--------------------|---------------------|
G |--------------------|--------------------o|
D#|--------------------|---------------------|
A#|--------------------|---------------------|
F |-/10------8------7--|--8------7------5---o|
A#|--------------------|---------------------|

  |   E  E Q    E E Q     E  E Q    E E E E
C |--------------------|---------------------|
G |--------------------|--------------------o|
D#|---x--x-x----x-x-x--|--x--x-x----x-x-x-x--|
A#|---x--x-x----x-x-x--|--x--x-x----x-x-x-x--|
F |---x--x-x----x-x-x--|--x--x-x----x-x-x-x-o|
A#|--------------------|---------------------|

[Post Chorus]
       PM--|   PM  PM|       PM-|   PM       PM
       S S E E E E E E E     E  E E E  E  E  E E
C |----------------------|-----------------------|
G |o-------------------1-|-----------------------|
D#|----------2---2-------|--------2----0h=2----2-|
A#|----0-0-0---0---0-0---|---0--0---0--------0---|
F |o---------------------|-----------------------|
A#|----------------------|-----------------------|
 
       PM--|   PM  PM|       PM-|   PM       PM
       S S E E E E E E E     E  E E E  E  E  E E
C |----------------------|-----------------------|
G |o---------------------|-----------------------|
D#|----------------------|-----------------------|
A#|----------3---3-----3-|--------3----2h=3----3-|
F |o---1-1-1---1---1-1---|---1--1---1--------1---|
A#|----------------------|-----------------------|
 
       W                    +H         E  Q.
C |----------------------|-----------------------|
G |o---------------------|-----------------------|
D#|--/10-----------------|-(10)----------10------|
A#|----------------------|------------10---------|
F |o---------------------|-----------------------|
A#|----------------------|-----------------------|

     PM|   PM  PM|       PM-|   PM    PM
     E E E E E E E E     E  E E E E E E E
C |------------------|--------------------|
G |----------------1-|--------------------|
D#|------2---2-------|--------2---0h2---2-|
A#|--2-2---2---2-2---|---2--2---2-----2---|
F |------------------|--------------------|
A#|------------------|--------------------|

     PM|   PM  PM|       PM-|   PM    PM
     E E E E E E E E     E  E E E E E E E
C |------------------|--------------------|
G |------------------|--------------------|
D#|----------------2-|--------------------|
A#|------3---3-------|--------3---2h3---3-|
F |--3-3---3---3-3---|---3--3---3-----3---|
A#|------------------|--------------------|

     W                  +W
C |------------------|--------------------|
G |------------------|--------------------|
D#|------------------|--------------------|
A#|-10---------------|-(10)---------------|
F |------------------|--------------------|
A#|------------------|--------------------|

     PM|   PM  PM|       PM-|            PM
     E E E E E E E E     E  E E E  E  E  E E
C |------------------|-----------------------|
G |------------------|-----------------------|
D#|------2---2-----5-|--------2-------2----2-|
A#|--4-4---4---4-4---|---4--4---4--5-----2---|
F |------------------|-----------------------|
A#|------------------|-----------------------|

     PM|   PM  PM|       PM-|   PM       PM
     E E E E E E E E     E  E E E  E  E  E E
C |------------------|-----------------------|
G |------------------|-----------------------|
D#|------------------|-----------------------|
A#|----------------7-|-----------------------|
F |--5-5-8-5-8-5-5---|---5--5-8-5--7h=8--5-8-|
A#|------------------|-----------------------|
 
     W                  +H         E  Q.
C |------------------|-----------------------|
G |------------------|-----------------------|
D#|-10---------------|-(10)----------10------|
A#|------------------|------------10---------|
F |------------------|-----------------------|
A#|------------------|-----------------------|

     E  E  E  E  E  E  E  E    E  E  E  E  E  E  E  E
C |-------------------------|--------------------------|
G |-------------------------|--------------------------|
D#|-------------------------|--------------------------|
A#|-10-10-10-10-10-10-10-10-|-10-10-10-10-10-10-10-10--|
F |-10-10-10-10-10-10-10-10-|-10-10-10-10-10-10-10-10--|
A#|-10-10-10-10-10-10-10-10-|-10-10-10-10-10-10-10-10--|
 
     E  E  E  E  E  E  E  E    E  E  E  E  E  E  E  E
C |-------------------------|--------------------------|
G |-------------------------|--------------------------|
D#|-------------------------|--------------------------|
A#|-10-10-10-10-10-10-10-10-|-10-10-10-10-10-10-10-10--|
F |-10-10-10-10-10-10-10-10-|-10-10-10-10-10-10-10-10--|
A#|-10-10-10-10-10-10-10-10-|-10-10-10-10-10-10-10-10--|
 
     H           H             H           H
C |-------------------------|--------------------------|
G |-------------------------|-------------------------o|
D#|-------------------------|--------------------------|
A#|-10----------------------|--7-----------------------|
F |-------------10----------|--------------7----------o|
A#|-------------------------|--------------------------|

[Verse Continued]
[Gtr I]
           PM--|                              PM--|
  E E q  E E E E   E E E E E E E E   E E q  E E E E   E E E E E E E E
|----------------|-----------------|----------------|-----------------|
|----------------|-----------------|----------------|-----------------|
|----------------|-----------------|----------------|---------5-5-5-5-|
|-----0----------|-5-5-5-5S8-8-8-8-|-----0----------|-5-5-5-5-5-5-5-5-|
|-0-0-0----0-0-0-|-5-5-5-5S8-8-8-8-|-0-0-0----0-0-0-|-5-5-5-5-3-3-3-3-|
|-0-0-0----0-0-0-|-5-5-5-5S8-8-8-8-|-0-0-0----0-0-0-|-5-5-5-5---------|
 
[Gtr II]
           PM--|                              PM--|
  E E q  E E E E   E E E E E E E E   E E q  E E E E   E E E E E E E E
|----------------|-----------------|----------------|-----------------|
|----------------|-----------------|----------------|-----------------|
|----------------|-----------------|----------------|---------5-5-5-5-|
|-----0----------|-5-5-5-5S8-8-8-8-|-----0----------|-5-5-5-5-5-5-5-5-|
|-0-0-0----0-0-0-|-5-5-5-5S8-8-8-8-|-0-0-0----0-0-0-|-5-5-5-5-3-3-3-3-|
|-0-0-0----0-0-0-|-5-5-5-5S8-8-8-8-|-0-0-0----0-0-0-|-5-5-5-5---------|

             PM--|                       ~~~~      ~~~~~~~~~~~~~~~~~~~
    E E q  E E E E   E E E E E E E E     Q.   Q.   Q     Q.   Q.   Q
C |----------------|-----------------|----------------|----------------|
G |----------------|-----------------|----------------|----------------|
D#|----------------|-----------------|----------------|----------------|
A#|-----0----------|-5-5-5-5S8-8-8-8-|----------------|----------------|
F |-0-0-0----0-0-0-|-5-5-5-5S8-8-8-8S|===7----5----3--|-/5----3----1---|
A#|-0-0-0----0-0-0-|-5-5-5-5S8-8-8-8-|----------------|----------------|
 
             PM--|                       ~~~~~~~~~~~~~~~~~~~~~~~~
    E E q  E E E E   E E E E E E E E     Q.   Q.   Q     Q.   Q.   Q
C |----------------|-----------------|----------------|----------------|
G |----------------|-----------------|----------------|----------------|
D#|----------------|-----------------|----------------|----------------|
A#|-----0----------|-5-5-5-5S8-8-8-8-|----------------|----------------|
F |-0-0-0----0-0-0-|-5-5-5-5S8-8-8-8-|-/10----8----7--|--8----7----5\--|
A#|-0-0-0----0-0-0-|-5-5-5-5S8-8-8-8-|----------------|----------------|

    E E E E Q.     E   E E H.
C |------------------|-----------|
G |------------------|-----------|
D#|------------------|-----------|
A#|------------------|-----------|
F |-x-x-x-x--------x-|-x-x-------|
A#|-x-x-x-x--------x-|-x-x-------|
 
    H       E  E E E   W
C |------------------|-----------|
G |------------------|-----------|
D#|------------------|-----------|
A#|------------------|-----------|
F |---------x--x-x-x-|-----------|
A#|---------x--x-x-x-|-----------|

[Chorus]
[Gtrs I, II]
    E E E E  E E E E   E E E E E E E E   E E E E E E E E   E E E E E E E E
C |------------------|-----------------|-----------------|-----------------|
G |------------------|-----------------|-----------------|-----------------|
D#|-7-7-7-7--7-7-7-7-|-7-7-7-7-7-7-7-7-|-----------------|-----------------|
A#|-7-7-7-7--7-7-7-7-|-7-7-7-7-7-7-7-7-|-8-8-8-8-8-8-8-8-|-8-8-8-8-8-8-8-8-|
F |-5-5-5-5--5-5-5-5-|-5-5-5-5-5-5-5-5-|-8-8-8-8-8-8-8-8-|-8-8-8-8-8-8-8-8-|
A#|------------------|-----------------|-8-8-8-8-8-8-8-8-|-8-8-8-8-8-8-8-8-|

[Gtr IV]
    TP       TP        TP      TP        TP      TP        TP      TP
    H        H         H       H         H       H         H       H
C |------------------|-----------------|-----------------|-----------------|
G |------------------|-----------------|-----------------|-----------------|
D#|------------------|-----------------|-----------------|-----------------|
A#|------------------|-----------------|-----------------|-----------------|
F |-5-------/7-------|-8-------7-------|---------8-------|-7-------8-------|
A#|------------------|-----------------|-8---------------|-----------------|
 
[Gtr III]
    TP       TP        TP      TP        TP      TP        TP      TP
    H        H         H       H         H       H         H       H
C |------------------|-----------------|-----------------|-----------------|
G |------------------|-----------------|-----------------|-----------------|
D#|------------------|-----------------|-----------------|-----------------|
A#|------------------|-----------------|-----------------|-----------------|
F |-5-------/7-------|-8-------7-------|---------8-------|-7-------8-------|
A#|------------------|-----------------|-8---------------|-----------------|

     E  E  E  E  E  E  E  E    E  E  E  E  E  E  E  E
C |-------------------------|-------------------------|
G |-------------------------|-------------------------|
D#|-10-10-10-10-10-10-10-10-|-10-10-10-10-10-10-10-10-|
A#|-10-10-10-10-10-10-10-10-|-10-10-10-10-10-10-10-10-|
F |--8--8--8--8--8--8--8--8-|--8--8--8--8--8--8--8--8-|
A#|-------------------------|-------------------------|

     TP          TP            TP          TP
     H           H             H           H
C |-------------------------|-------------------------|
G |-------------------------|-10----------------------|
D#|-------------------------|-------------------------|
A#|-------------------------|-------------------------|
F |--8----------10----------|-------------10----------|
A#|-------------------------|-------------------------|

     TP          TP            TP          TP
     H           H             H           H
C |-------------------------|-------------------------|
G |--------------8----------|--------------8----------|
D#|-------------------------|-------------------------|
A#|-------------------------|--7----------------------|
F |--8----------------------|-------------------------|
A#|-------------------------|-------------------------|

     E  E  E  E  E  E  E  E    E  E  E  E  E  E  E  E
C |-------------------------|-------------------------|
G |-------------------------|-------------------------|
D#|-------------------------|-------------------------|
A#|-10-10-10-10-10-10-10-10-|-10-10-10-10-10-10-10-10-|
F |-10-10-10-10-10-10-10-10-|-10-10-10-10-10-10-10-10-|
A#|-10-10-10-10-10-10-10-10-|-10-10-10-10-10-10-10-10-|
 
     TP          TP            TP          TP
     H           H             H           H
C |-------------------------|-------------------------|
G |-------------------------|-------------------------|
D#|-------------------------|-------------------------|
A#|-------------------------|-------------------------|
F |--------------8----------|--7-----------8----------|
A#|-10----------------------|-------------------------|
 
     TP          TP            TP          TP
     H           H             H           H
C |-------------------------|-------------------------|
G |-------------------------|-------------------------|
D#|-------------------------|-------------------------|
A#|-------------------------|-------------------------|
F |--------------8----------|--7-----------8----------|
A#|-10----------------------|-------------------------|

    E E E E  E E E E   E E E E E E E E   E E E E E E E E   E E E E E E E E
C |------------------|-----------------|-----------------|-----------------|
G |------------------|-----------------|-----------------|-----------------|
D#|-7-7-7-7--7-7-7-7-|-7-7-7-7-7-7-7-7-|-----------------|-----------------|
A#|-7-7-7-7--7-7-7-7-|-7-7-7-7-7-7-7-7-|-8-8-8-8-8-8-8-8-|-8-8-8-8-8-8-8-8-|
F |-5-5-5-5--5-5-5-5-|-5-5-5-5-5-5-5-5-|-8-8-8-8-8-8-8-8-|-8-8-8-8-8-8-8-8-|
A#|------------------|-----------------|-8-8-8-8-8-8-8-8-|-8-8-8-8-8-8-8-8-|
 
    TP       TP        TP      TP        TP      TP        TP      TP
    H        H         H       H         H       H         H       H
C |------------------|-----------------|-----------------|-----------------|
G |------------------|-----------------|-----------------|-----------------|
D#|------------------|-----------------|-----------------|-----------------|
A#|------------------|-----------------|-----------------|-----------------|
F |-5-------/7-------|-8-------7-------|---------8-------|-7-------8-------|
A#|------------------|-----------------|-8---------------|-----------------|

    TP       TP        TP      TP        TP      TP        TP      TP
    H        H         H       H         H       H         H       H
C |------------------|-----------------|-----------------|-----------------|
G |------------------|-----------------|-----------------|-----------------|
D#|------------------|-----------------|-----------------|-----------------|
A#|------------------|-----------------|-----------------|-----------------|
F |-5-------/7-------|-8-------7-------|---------8-------|-7-------8-------|
A#|------------------|-----------------|-8---------------|-----------------|

      E  E E E E E E E     E  E E E E E E E
C |--------------------|--------------------|
G |--------------------|--------------------|
D#|--------------------|--------------------|
A#|---5--5-5-5-5-5-5-5-|---5--5-5-5-5-5-5-5S|
F |---5--5-5-5-5-5-5-5-|---5--5-5-5-5-5-5-5S|
A#|---5--5-5-5-5-5-5-5-|---5--5-5-5-5-5-5-5S|
 
[LOW VOLUME CHORDS +W]
C |--------------------|--------------------|
G |--------------------|--------------------|
D#|--------------------|--------------------|
A#|-(12)---------------|-(12)---------------|
F |-(12)---------------|-(12)---------------|
A#|-(12)---------------|-(12)---------------|
 
      W                   +W
C |--------------------|--------------------|
G |--------------------|--------------------|
D#|--------------------|--------------------|
A#|--(8)---------------|--(8)---------------|
F |--(8)---------------|--(8)---------------|
A#|--(8)---------------|--(8)---------------|

      E  E E E E E E E     E  E E E E E E E
C |--------------------|--------------------|
G |--------------------|--------------------|
D#|--------------------|--------------------|
A#|---8--8-8-8-8-8-8-8-|---8--8-8-8-8-8-8-8-|
F |---8--8-8-8-8-8-8-8-|---8--8-8-8-8-8-8-8-|
A#|---8--8-8-8-8-8-8-8-|---8--8-8-8-8-8-8-8-|
 
     +W                   +W
C |--------------------|--------------------|
G |--------------------|--------------------|
D#|--------------------|--------------------|
A#|-(12)---------------|-(12)---------------|
F |-(12)---------------|-(12)---------------|
A#|-(12)---------------|-(12)---------------|

     +W                   +W
C |--------------------|--------------------|
G |--------------------|--------------------|
D#|--------------------|--------------------|
A#|--(8)---------------|--(8)---------------|
F |--(8)---------------|--(8)---------------|
A#|--(8)---------------|--(8)---------------|

[Gtr I]
    E E E E Q.     E   E E H.
C |------------------|-----------|
G |------------------|-----------|
D#|------------------|-----------|
A#|------------------|-----------|
F |-x-x-x-x--------x-|-x-x-------|
A#|-x-x-x-x--------x-|-x-x-------|

[Gtr II]
    H       E  E E E   W
C |------------------|-----------|
G |------------------|-----------|
D#|------------------|-----------|
A#|------------------|-----------|
F |---------x--x-x-x-|-----------|
A#|---------x--x-x-x-|-----------|

[Re-Intro]
[Gtrs I, II]
     ~~ PM  PM  PM    PM   PM   PM             ~         ~~~~~~~~~~        ~~
                                   |8-|
     Q  E E E E E E   E  E E  E E  E  E  E E   Q  E E E  Q.      Q   E E E Q.
C |-----------------|------------------------|----------------|------------------|
G |-----------------|------------------------|----------------|------------------|
D#|-----------------|------------------------|----------------|------------------|
A#|-----------------|------------------------|----------10----|------------------|
F |-/5----5---7---8-|---10---12---10h12p10-8-|------8p7-------|--------8-7-------|
A#|-----0---0---0---|-0----0----0------------|-8--8-----------|-10--10-----8-----|

     ~~ PM  PM  PM    PM   PM   PM                  PM     PM       PM
                                   |8-|
     Q  E E E E E E   E  E E  E E  E  E  E E   Q  E E Q  E E   Q  E E E E E E
C |-----------------|------------------------|---------------|-----------------|
G |-----------------|------------------------|---------------|-----------------|
D#|-----------------|------------------------|---------------|-----------------|
A#|-----------------|------------------------|-8--8---3--3---|-5--5---7-7-7-7--|
F |-/5----5---7---8-|---10---12---10h12p10-8-|-8--8-0-3--3-0-|-5--5-0-8-8-8-8--|
A#|-----0---0---0---|-0----0----0------------|-8--8-0-3--3-0-|-5--5-0-7-7-7-7--|

[Verse II]
[Gtr I]
           PM--|                              PM--|
  E E q  E E E E   E E E E E E E E   E E q  E E E E   E E E E E E E E
|----------------|-----------------|----------------|-------------------|
|----------------|-----------------|----------------|-------------------|
|----------------|-----------------|----------------|---------5-5-5-5---|
|-----0----------|-5-5-5-5S8-8-8-8-|-----0----------|-5-5-5-5-5-5-5-5---|
|-0-0-0----0-0-0-|-5-5-5-5S8-8-8-8-|-0-0-0----0-0-0-|-5-5-5-5-3-3-3-3---|
|-0-0-0----0-0-0-|-5-5-5-5S8-8-8-8-|-0-0-0----0-0-0-|-5-5-5-5-----------|

[Gtr II]
           PM--|                              PM--|
| E E q  E E E E   E E E E E E E E   E E q  E E E E   E E E E E E E E
|----------------|-----------------|----------------|-------------------|
|----------------|-----------------|----------------|-------------------|
|----------------|-----------------|----------------|---------5-5-5-5---|
|-----0----------|-5-5-5-5S8-8-8-8-|-----0----------|-5-5-5-5-5-5-5-5---|
|-0-0-0----0-0-0-|-5-5-5-5S8-8-8-8-|-0-0-0----0-0-0-|-5-5-5-5-3-3-3-3---|
|-0-0-0----0-0-0-|-5-5-5-5S8-8-8-8-|-0-0-0----0-0-0-|-5-5-5-5-----------|

             PM--|                       ~~~~      ~~~~~~~~~~~~~~~~~~~
    E E q  E E E E   E E E E E E E E     Q.   Q.   Q     Q.   Q.   Q
C |----------------|-----------------|----------------|----------------|
G |----------------|-----------------|----------------|----------------|
D#|----------------|-----------------|----------------|----------------|
A#|-----0----------|-5-5-5-5S8-8-8-8-|----------------|----------------|
F |-0-0-0----0-0-0-|-5-5-5-5S8-8-8-8S|===7----5----3--|-/5----3----1---|
A#|-0-0-0----0-0-0-|-5-5-5-5S8-8-8-8-|----------------|----------------|
 
             PM--|                       ~~~~~~~~~~~~~~~~~~~~~~~~
    E E q  E E E E   E E E E E E E E     Q.   Q.   Q     Q.   Q.   Q
C |----------------|-----------------|----------------|----------------|
G |----------------|-----------------|----------------|----------------|
D#|----------------|-----------------|----------------|----------------|
A#|-----0----------|-5-5-5-5S8-8-8-8-|----------------|----------------|
F |-0-0-0----0-0-0-|-5-5-5-5S8-8-8-8-|-/10----8----7--|--8----7----5\--|
A#|-0-0-0----0-0-0-|-5-5-5-5S8-8-8-8-|----------------|----------------|

[Post Chorus]
       PM--|   PM  PM|       PM-|   PM       PM
       S S E E E E E E E     E  E E E  E  E  E E
C |----------------------|-----------------------|
G |o-------------------1-|-----------------------|
D#|----------2---2-------|--------2----0h=2----2-|
A#|----0-0-0---0---0-0---|---0--0---0--------0---|
F |o---------------------|-----------------------|
A#|----------------------|-----------------------|
 
       PM--|   PM  PM|       PM-|   PM       PM
       S S E E E E E E E     E  E E E  E  E  E E
C |----------------------|-----------------------|
G |o---------------------|-----------------------|
D#|----------------------|-----------------------|
A#|----------3---3-----3-|--------3----2h=3----3-|
F |o---1-1-1---1---1-1---|---1--1---1--------1---|
A#|----------------------|-----------------------|
 
[Gtr V]
       W                    +H         E  Q.
C |----------------------|-----------------------|
G |o---------------------|-----------------------|
D#|--/10-----------------|-(10)----------10------|
A#|----------------------|------------10---------|
F |o---------------------|-----------------------|
A#|----------------------|-----------------------|

     PM|   PM  PM|       PM-|   PM    PM
     E E E E E E E E     E  E E E E E E E
C |------------------|--------------------|
G |----------------1-|--------------------|
D#|------2---2-------|--------2---0h2---2-|
A#|--2-2---2---2-2---|---2--2---2-----2---|
F |------------------|--------------------|
A#|------------------|--------------------|

     PM    PM  PM        PM     PM    PM
     E E E E E E E E     E  E E E E E E E
C |------------------|--------------------|
G |------------------|--------------------|
D#|----------------2-|--------------------|
A#|------3---3-------|--------3---2h3---3-|
F |--3-3---3---3-3---|---3--3---3-----3---|
A#|------------------|--------------------|

     W                  +W
C |------------------|--------------------|
G |------------------|--------------------|
D#|------------------|--------------------|
A#|-10---------------|-(10)---------------|
F |------------------|--------------------|
A#|------------------|--------------------|

     PM|   PM  PM|       PM-|            PM
     E E E E E E E E     E  E E E  E  E  E E    E  E  E  E  E  E  E  E
C |------------------|-----------------------|-------------------------|
G |------------------|-----------------------|-------------------------|
D#|------2---2-----5-|--------2-------2----2-|-------------------------|
A#|--4-4---4---4-4---|---4--4---4--5-----2---|-10-10-10-10-10-10-10-10-|
F |------------------|-----------------------|-10-10-10-10-10-10-10-10-|
A#|------------------|-----------------------|-10-10-10-10-10-10-10-10-|

     PM    PM  PM|       PM-|   PM       PM
     E E E E E E E E     E  E E E  E  E  E E    E  E  E  E  E  E  E  E
C |------------------|-----------------------|-------------------------|
G |------------------|-----------------------|-------------------------|
D#|------------------|-----------------------|-------------------------|
A#|----------------7-|-----------------------|-10-10-10-10-10-10-10-10-|
F |--5-5-8-5-8-5-5---|---5--5-8-5--7h=8--5-8-|-10-10-10-10-10-10-10-10-|
A#|------------------|-----------------------|-10-10-10-10-10-10-10-10-|

     W                  +H         E  Q.        H           H
C |------------------|-----------------------|-------------------------|
G |------------------|-----------------------|-------------------------|
D#|-10---------------|-(10)----------10------|-------------------------|
A#|------------------|------------10---------|-10----------------------|
F |------------------|-----------------------|-------------10----------|
A#|------------------|-----------------------|-------------------------|

[1.]                                                     
     E  E  E  E  E  E  E  E      
C |--------------------------|
G |-------------------------o|
D#|--------------------------|
A#|-10-10-10-10-10-10-10-10--|
F |-10-10-10-10-10-10-10-10-o|
A#|-10-10-10-10-10-10-10-10--|

[2.]
    |----3----|
    Q Q Q Q Q Q
-----------------|
-----------------|
-----------------|
-----------------|
-\7-5-3-5-3-1----|
-----------------|
                             
     E  E  E  E  E  E  E  E     
C |--------------------------|
G |--------------------------|
D#|--------------------------|
A#|-10-10-10-10-10-10-10-10--|
F |-10-10-10-10-10-10-10-10-o|
A#|-10-10-10-10-10-10-10-10--|

  |----3----|
  Q Q Q Q Q Q
C |-----------------|
G |-----------------|
D#|-----------------|
A#|-----------------|
F |-10-8-7-8-7-5\---|
A#|-----------------|

     H           H             W
C |-------------------------|-----------------|
G |-------------------------|-----------------|
D#|-------------------------|-----------------|
A#|--7----------------------|--x--------------|
F |--------------7----------|--x--------------|
A#|-------------------------|-----------------|

[Chorus]
[Gtrs I, II]
     E E E E  E E E E   E E E E E E E E   E E E E E E E E   E E E E E E E E
C |-------------------|-----------------|-----------------|------------------|
G |-------------------|-----------------|-----------------|------------------|
D#|--7-7-7-7--7-7-7-7-|-7-7-7-7-7-7-7-7-|-----------------|------------------|
A#|--7-7-7-7--7-7-7-7-|-7-7-7-7-7-7-7-7-|-8-8-8-8-8-8-8-8-|-8-8-8-8-8-8-8-8--|
F |--5-5-5-5--5-5-5-5-|-5-5-5-5-5-5-5-5-|-8-8-8-8-8-8-8-8-|-8-8-8-8-8-8-8-8--|
A#|-------------------|-----------------|-8-8-8-8-8-8-8-8-|-8-8-8-8-8-8-8-8--|

[Gtr IV]
     TP       TP        TP      TP        TP      TP        TP      TP
     H        H         H       H         H       H         H       H
C |-------------------|-----------------|-----------------|------------------|
G |o------------------|-----------------|-----------------|------------------|
D#|-------------------|-----------------|-----------------|------------------|
A#|-------------------|-----------------|-----------------|------------------|
F |o-5-------/7-------|-8-------7-------|---------8-------|-7-------8--------|
A#|-------------------|-----------------|-8---------------|------------------|

[Gtr III]
     TP       TP        TP      TP        TP      TP        TP      TP
     H        H         H       H         H       H         H       H
C |-------------------|-----------------|-----------------|------------------|
G |o------------------|-----------------|-----------------|------------------|
D#|-------------------|-----------------|-----------------|------------------|
A#|-------------------|-----------------|-----------------|------------------|
F |--5-------/7-------|-8-------7-------|---------8-------|-7-------8--------|
A#|-------------------|-----------------|-8---------------|------------------|

     E  E  E  E  E  E  E  E    E  E  E  E  E  E  E  E
C |-------------------------|-------------------------|
G |-------------------------|-------------------------|
D#|-10-10-10-10-10-10-10-10-|-10-10-10-10-10-10-10-10-|
A#|-10-10-10-10-10-10-10-10-|-10-10-10-10-10-10-10-10-|
F |--8--8--8--8--8--8--8--8-|--8--8--8--8--8--8--8--8-|
A#|-------------------------|-------------------------|

     TP          TP            TP          TP
     H           H             H           H
C |-------------------------|-------------------------|
G |-------------------------|-10----------------------|
D#|-------------------------|-------------------------|
A#|-------------------------|-------------------------|
F |--8----------10----------|-------------10----------|
A#|-------------------------|-------------------------|
 
     TP          TP            TP          TP
     H           H             H           H
C |-------------------------|-------------------------|
G |--------------8----------|--------------8----------|
D#|-------------------------|-------------------------|
A#|-------------------------|--7----------------------|
F |--8----------------------|-------------------------|
A#|-------------------------|-------------------------|

     E  E  E  E  E  E  E  E    E  E  E  E  E  E  E  E
C |-------------------------|-------------------------|
G |-------------------------|-------------------------|
D#|-------------------------|-------------------------|
A#|-10-10-10-10-10-10-10-10-|-10-10-10-10-10-10-10-10-|
F |-10-10-10-10-10-10-10-10-|-10-10-10-10-10-10-10-10-|
A#|-10-10-10-10-10-10-10-10-|-10-10-10-10-10-10-10-10-|
 
     TP          TP            TP          TP
     H           H             H           H
C |-------------------------|-------------------------|
G |-------------------------|-------------------------|
D#|-------------------------|-------------------------|
A#|-------------------------|-------------------------|
F |--------------8----------|--7-----------8----------|
A#|-10----------------------|-------------------------|
 
     TP          TP            TP          TP
     H           H             H           H
C |-------------------------|-------------------------|
G |-------------------------|-------------------------|
D#|-------------------------|-------------------------|
A#|-------------------------|-------------------------|
F |--------------8----------|--7-----------8----------|
A#|-10----------------------|-------------------------|

    E E E E  E E E E   E E E E E E E E   E E E E E E E E   E E E E E E E E
C |------------------|-----------------|-----------------|-----------------|
G |------------------|-----------------|-----------------|-----------------|
D#|-7-7-7-7--7-7-7-7-|-7-7-7-7-7-7-7-7-|-----------------|-----------------|
A#|-7-7-7-7--7-7-7-7-|-7-7-7-7-7-7-7-7-|-8-8-8-8-8-8-8-8-|-8-8-8-8-8-8-8-8-|
F |-5-5-5-5--5-5-5-5-|-5-5-5-5-5-5-5-5-|-8-8-8-8-8-8-8-8-|-8-8-8-8-8-8-8-8-|
A#|------------------|-----------------|-8-8-8-8-8-8-8-8-|-8-8-8-8-8-8-8-8-|
 
    TP       TP        TP      TP        TP      TP        TP      TP
    H        H         H       H         H       H         H       H
C |------------------|-----------------|-----------------|-----------------|
G |------------------|-----------------|-----------------|-----------------|
D#|------------------|-----------------|-----------------|-----------------|
A#|------------------|-----------------|-----------------|-----------------|
F |-5-------/7-------|-8-------7-------|---------8-------|-7-------8-------|
A#|------------------|-----------------|-8---------------|-----------------|
 
    TP       TP        TP      TP        TP      TP        TP      TP
    H        H         H       H         H       H         H       H
C |------------------|-----------------|-----------------|-----------------|
G |------------------|-----------------|-----------------|-----------------|
D#|------------------|-----------------|-----------------|-----------------|
A#|------------------|-----------------|-----------------|-----------------|
F |-5-------/7-------|-8-------7-------|---------8-------|-7-------8-------|
A#|------------------|-----------------|-8---------------|-----------------|

      E  E E E E E E E     E  E E E E E E E
C |--------------------|--------------------|
G |--------------------|--------------------|
D#|--------------------|--------------------|
A#|---5--5-5-5-5-5-5-5-|---5--5-5-5-5-5-5-5S|
F |---5--5-5-5-5-5-5-5-|---5--5-5-5-5-5-5-5S|
A#|---5--5-5-5-5-5-5-5-|---5--5-5-5-5-5-5-5S|

      W                   +W
C |--------------------|--------------------|
G |--------------------|--------------------|
D#|--------------------|--------------------|
A#|-(12)---------------|-(12)---------------|
F |-(12)---------------|-(12)---------------|
A#|-(12)---------------|-(12)---------------|
 
      W                   +W
C |--------------------|--------------------|
G |--------------------|--------------------|
D#|--------------------|--------------------|
A#|--(8)---------------|--(8)---------------|
F |--(8)---------------|--(8)---------------|
A#|--(8)---------------|--(8)---------------|

      E  E E E E E E E     E  E E E E E E E
C |--------------------|---------------------|
G |--------------------|---------------------|
D#|--------------------|---------------------|
A#|---8--8-8-8-8-8-8-8-|---8--8-8-8-8-8-8-8--|
F |---8--8-8-8-8-8-8-8-|---8--8-8-8-8-8-8-8--|
A#|---8--8-8-8-8-8-8-8-|---8--8-8-8-8-8-8-8--|
 
     +W                   +W
C |--------------------|---------------------|
G |--------------------|---------------------|
D#|--------------------|---------------------|
A#|-(12)---------------|-(12)----------------|
F |-(12)---------------|-(12)----------------|
A#|-(12)---------------|-(12)----------------|

     +W                   +W
C |--------------------|---------------------|
G |--------------------|---------------------|
D#|--------------------|---------------------|
A#|--(8)---------------|--(8)----------------|
F |--(8)---------------|--(8)----------------|
A#|--(8)---------------|--(8)----------------|

[Bridge/Pre-Solo]
[Gtr IV]
      PM------------------------------------------------
      E  E  E  E  E  E  E  E    E  E  E  E  E  E  E  E
C |--------------------------|-------------------------|
G |--------------------------|-------------------------|
D#|--------------------------|-------------------15-14-|
A#|-/15-15-15-15-15-15-15-15-|-15-15-15-15-14-15-------|
F |--------------------------|-------------------------|
A#|--------------------------|-------------------------|

[Gtr III]
      PM------------------------------------------------
      E  E  E  E  E  E  E  E    E  E  E  E  E  E  E  E
C |--------------------------|-----------------------8-|
G |-/10-10-10-10-10-10-10-10-|-10-10-10-10--8-10--8----|
D#|--------------------------|-------------------------|
A#|--------------------------|-------------------------|
F |--------------------------|-------------------------|
A#|--------------------------|-------------------------|

[Gtrs I, II]
      PM------------------------------------------------
      E  E  H           E  E    W
C |--------------------------|-------------------------|
G |--------------------------|-------------------------|
D#|--------------------------|-------------------------|
A#|---7--7--------------7--7-|-------------------------|
F |---5--5--------------5--5-|-------------------------|
A#|--------------------------|-------------------------|

 |------------------------------------------------|
   E  E  E  E  E  E  E  E    E  E  E  E  E  E  E  E
C |-------------------------|-------------------------|
G |-------------------------|-------------------------|
D#|-------------------------|-------------------15-14-|
A#|-15-15-15-15-15-15-15-15-|-15-15-15-15-14-15-------|
F |-------------------------|-------------------------|
A#|-------------------------|-------------------------|

  |-----------------------------------------------|
     E  E  E  E  E  E  E  E    E  E  E  E  E  E  E  E
C |-------------------------|-----------------------8-|
G |-10-10-10-10-10-10-10-10-|-10-10-10-10--8-10--8----|
D#|-------------------------|-------------------------|
A#|-------------------------|-------------------------|
F |-------------------------|-------------------------|
A#|-------------------------|-------------------------|
 
  |---------------------|
   E  E  H           E  E    W
C |-------------------------|-------------------------|
G |-------------------------|-------------------------|
D#|-------------------------|-------------------------|
A#|--3--3--------------3--3-|-------------------------|
F |--1--1--------------1--1-|-------------------------|
A#|-------------------------|-------------------------|

    PM--------------------------------------------|     ~~~~~~~~~~~~~~
    E  E  E  E  E  E  E  E    E  E  E  E  E  E  E  E    W           W
C |--------------------------|-------------------------|-----------|-------|
G |--------------------------|-------------------------|-----------|-------|
D#|--------------------------|-------------------15-14-|-----------|-------|
A#|-/15-15-15-15-15-15-15-15-|-15-15-15-15-14-15-------|-15--------|-14----|
F |--------------------------|-------------------------|-----------|-------|
A#|--------------------------|-------------------------|-----------|-------|

    PM--------------------------------------------|     ~~~~~~~~~~~~~~
    E  E  E  E  E  E  E  E    E  E  E  E  E  E  E  E    W           W
C |--------------------------|-----------------------8-|-----------|-------|
G |-/10-10-10-10-10-10-10-10-|-10-10-10-10--8-10--8----|-10--------|--8----|
D#|--------------------------|-------------------------|-----------|-------|
A#|--------------------------|-------------------------|-----------|-------|
F |--------------------------|-------------------------|-----------|-------|
A#|--------------------------|-------------------------|-----------|-------|
 
    PM-----------------------|
    E  E  H           E  E    W                         W           W
C |--------------------------|-------------------------|-----------|-------|
G |--------------------------|-------------------------|-----------|-------|
D#|--------------------------|-------------------------|--5--------|--3----|
A#|---2--2--------------2--2-|-------------------------|--5--------|--3----|
F |---0--0--------------0--0-|-------------------------|--3--------|--1----|
A#|--------------------------|-------------------------|-----------|-------|

[Guitar Solo]
[Gtr V]
                           ~~
    Q  Q     H             H       Q.      +E
C |---------------------|-----------------------|
G |---------------------|-13--------------------|
D#|----x---/10b12-------|---------12------(12)\-|
A#|----x----------------|-----------------------|
F |---------------------|-----------------------|
A#|---------------------|-----------------------|

[Gtrs I, II]
     PM---------|           PM------|
  Q  E E   E    E E E    Q  E E  E  E E   E
C |---------------------|-----------------------|
G |---------------------|-----------------------|
D#|-5---------------5-5-|---------------5---5---|
A#|-5--------5----5-5-5-|----------5--5-5---5---|
F |-3--3-3---3----3-3-3-|-----3-3--3--3-3---3---|
A#|---------------------|-----------------------|

     Q.       +E       Q    Q     Q    H        +Q
C |-----------------------------|----------------------|
G |-----------------------------|----------------------|
D#|-13b15----(13)pb15r13--------|----/12-------(12)\---|
A#|------------------------13S==|=x--------------------|
F |-----------------------------|----------------------|
A#|-----------------------------|----------------------|

         PM------------|             PM----|
   Q     E   E       E E  E E   Q    E E E E   E   E
C |-----------------------------|----------------------|
G |-----------------------------|----------------------|
D#|-----------------------------|----------------------|
A#|--6----------------------6-6-|----------------6---6-|
F |--6-----------------6-6--6-6-|----------6-6---6---6-|
A#|--6-----6---6-------6-6--6-6-|------6-6-6-6---6---6-|

     ~~                    ~~
     H       H             H       Q.      +E
C |---------------------|-----------------------|
G |---------------------|-13--------------------|
D#|-10------10b12-------|---------12------(12)\-|
A#|---------------------|-----------------------|
F |---------------------|-----------------------|
A#|---------------------|-----------------------|
 
      PM--------|           PM------|
   Q  E E  E    E E E    Q  E E  E  E E   E
C |---------------------|-----------------------|
G |---------------------|-----------------------|
D#|--5--------------5-5-|---------------5---5---|
A#|--5-------5----5-5-5-|----------5--5-5---5---|
F |--3--3-3--3----3-3-3-|-----3-3--3--3-3---3---|
A#|---------------------|-----------------------|

                                    ~~~~
     Q.       +E       Q    Q      +W
C |-----------------------------|-------------------|
G |-----------------------------|-------------------|
D#|-13b15----(13)pb15r13--------|-------------------|
A#|------------------------13---|-(13)--------------|
F |-----------------------------|-------------------|
A#|-----------------------------|-------------------|
 
         PM------------|              PM----|
   Q     E   E       E E  E E     Q   E E E E E E
C |-----------------------------|-------------------|
G |-----------------------------|-------------------|
D#|-----------------------------|-------------------|
A#|--6----------------------6-6-|---------------6-6-|
F |--6-----------------6-6--6-6-|-----------6-6-6-6-|
A#|--6-----6---6-------6-6--6-6-|-------6-6-6-6-6-6-|

                ~~                      ~~~~~
    H      a a  H          Q   H        Q
C |---------------------|-------------------|
G |---------------------|-13h=15-------16---|
D#|------------12-------|-------------------|
A#|-x--------x----------|-------------------|
F |--------x------------|-------------------|
A#|---------------------|-------------------|

[Gtr IV]
    W                      W
C |---------------------|-------------------|
G |---------------------|-------------------|
D#|---------------------|-------------------|
A#|---------------------|-------------------|
F |---------------------|-------------------|
A#|---------------------|-------------------|

[Gtrs I, II]
     PM---------|            PM----|
  Q  E E      E E E E    Q   E E E E  E E
|---------------------|-------------------|
|---------------------|-------------------|
|-5---------------5-5-|---------------5-5-|
|-5-----------5-5-5-5-|----------5-5--5-5-|
|-3--3-3------3-3-3-3-|------3-3-3-3--3-3-|
|---------------------|-------------------|

[Gtr III]
   ~~~~~~         ~~~~~~~~~~
     +H.      a   Q     +H.         Q
C |------------------|------------------|
G |-(16)------x-/15--|-(15)--------20---|
D#|------------------|------------------|
A#|------------------|------------------|
F |------------------|------------------|
A#|------------------|------------------|

                  ~~~~~~~~~~
      H.          Q     +H      Q   Q
C |------------------|-------------18---|
G |-------------/18--|-(18)----18-------|
D#|------------------|------------------|
A#|------------------|------------------|
F |------------------|------------------|
A#|------------------|------------------|
 
      W                  W
C |------------------|------------------|
G |------------------|------------------|
D#|------------------|---3--------------|
A#|---1--------------|---3--------------|
F |---1--------------|---1--------------|
A#|---1--------------|------------------|

                                              ~~~
     +E    E  E  E  E  E  E  E    E  E  E  E  Q.          +E
C |----------------------------|-------------18----------(18)\-|
G |-(20)--------18-20-20-18-20-|-21-21-20-21-------------------|
D#|-------19-20----------------|-------------------------------|
A#|----------------------------|-------------------------------|
F |----------------------------|-------------------------------|
A#|----------------------------|-------------------------------|
 
                                              ~~~      ~~
     +E    E  E  E  E  E  E  E    E  E  E  E  E   +E   Q
C |-(18)-----------------------|-20-------20-23--(23)-23-------|
G |----------20-21-23----21-23-|-------23----------------------|
D#|------/22----------22-------|----22-------------------------|
A#|----------------------------|-------------------------------|
F |----------------------------|-------------------------------|
A#|----------------------------|-------------------------------|
 
      H             q     q       q     q     E    E   E   E
C |----------------------------|-------------------------------|
G |----------------------------|-------------------------------|
D#|----------------------------|-------------------------------|
A#|---6-------------6-----6----|--6-----6-----6----6---6---6---|
F |---6-------------6-----6----|--6-----6-----6----6---6---6---|
A#|---6-------------6-----6----|--6-----6-----6----6---6---6---|

[Chorus]
[Gtrs I, II]
     E E E E  E E E E   E E E E E E E E   E E E E E E E E   E E E E E E E E
C |-------------------|-----------------|-----------------|------------------|
G |o------------------|-----------------|-----------------|------------------|
D#|--7-7-7-7--7-7-7-7-|-7-7-7-7-7-7-7-7-|-----------------|------------------|
A#|--7-7-7-7--7-7-7-7-|-7-7-7-7-7-7-7-7-|-8-8-8-8-8-8-8-8-|-8-8-8-8-8-8-8-8--|
F |o-5-5-5-5--5-5-5-5-|-5-5-5-5-5-5-5-5-|-8-8-8-8-8-8-8-8-|-8-8-8-8-8-8-8-8--|
A#|-------------------|-----------------|-8-8-8-8-8-8-8-8-|-8-8-8-8-8-8-8-8--|
 
[Gtr IV]
     TP       TP        TP      TP        TP      TP        TP      TP
     H        H         H       H         H       H         H       H
C |-------------------|-----------------|-----------------|------------------|
G |o------------------|-----------------|-----------------|------------------|
D#|-------------------|-----------------|-----------------|------------------|
A#|-------------------|-----------------|-----------------|------------------|
F |o-5-------/7-------|-8-------7-------|---------8-------|-7-------8--------|
A#|-------------------|-----------------|-8---------------|------------------|
 
[Gtr III]
     TP       TP        TP      TP        TP      TP        TP      TP
     H        H         H       H         H       H         H       H
C |-------------------|-----------------|-----------------|------------------|
G |o------------------|-----------------|-----------------|------------------|
D#|-------------------|-----------------|-----------------|------------------|
A#|-------------------|-----------------|-----------------|------------------|
F |o-5-------/7-------|-8-------7-------|---------8-------|-7-------8--------|
A#|-------------------|-----------------|-8---------------|------------------|

     E  E  E  E  E  E  E  E    E  E  E  E  E  E  E  E
C |-------------------------|-------------------------|
G |-------------------------|-------------------------|
D#|-10-10-10-10-10-10-10-10-|-10-10-10-10-10-10-10-10-|
A#|-10-10-10-10-10-10-10-10-|-10-10-10-10-10-10-10-10-|
F |--8--8--8--8--8--8--8--8-|--8--8--8--8--8--8--8--8-|
A#|-------------------------|-------------------------|

     TP          TP            TP          TP
     H           H             H           H
C |-------------------------|-------------------------|
G |-------------------------|-10----------------------|
D#|-------------------------|-------------------------|
A#|-------------------------|-------------------------|
F |--8----------10----------|-------------10----------|
A#|-------------------------|-------------------------|
 
     TP          TP            TP          TP
     H           H             H           H
C |-------------------------|-------------------------|
G |--------------8----------|--------------8----------|
D#|-------------------------|-------------------------|
A#|-------------------------|--7----------------------|
F |--8----------------------|-------------------------|
A#|-------------------------|-------------------------|

     E  E  E  E  E  E  E  E    E  E  E  E  E  E  E  E
C |-------------------------|-------------------------|
G |-------------------------|-------------------------|
D#|-------------------------|-------------------------|
A#|-10-10-10-10-10-10-10-10-|-10-10-10-10-10-10-10-10-|
F |-10-10-10-10-10-10-10-10-|-10-10-10-10-10-10-10-10-|
A#|-10-10-10-10-10-10-10-10-|-10-10-10-10-10-10-10-10-|
 
     TP          TP            TP          TP
     H           H             H           H
C |-------------------------|-------------------------|
G |-------------------------|-------------------------|
D#|-------------------------|-------------------------|
A#|-------------------------|-------------------------|
F |--------------8----------|--7-----------8----------|
A#|-10----------------------|-------------------------|
 
     TP          TP            TP          TP
     H           H             H           H
C |-------------------------|-------------------------|
G |-------------------------|-------------------------|
D#|-------------------------|-------------------------|
A#|-------------------------|-------------------------|
F |--------------8----------|--7-----------8----------|
A#|-10----------------------|-------------------------|

    E E E E  E E E E   E E E E E E E E   E E E E E E E E   E E E E E E E E
C |------------------|-----------------|-----------------|-----------------|
G |------------------|-----------------|-----------------|-----------------|
D#|-7-7-7-7--7-7-7-7-|-7-7-7-7-7-7-7-7-|-----------------|-----------------|
A#|-7-7-7-7--7-7-7-7-|-7-7-7-7-7-7-7-7-|-8-8-8-8-8-8-8-8-|-8-8-8-8-8-8-8-8-|
F |-5-5-5-5--5-5-5-5-|-5-5-5-5-5-5-5-5-|-8-8-8-8-8-8-8-8-|-8-8-8-8-8-8-8-8-|
A#|------------------|-----------------|-8-8-8-8-8-8-8-8-|-8-8-8-8-8-8-8-8-|
 
    TP       TP        TP      TP        TP      TP        TP      TP
    H        H         H       H         H       H         H       H
C |------------------|-----------------|-----------------|-----------------|
G |------------------|-----------------|-----------------|-----------------|
D#|------------------|-----------------|-----------------|-----------------|
A#|------------------|-----------------|-----------------|-----------------|
F |-5-------/7-------|-8-------7-------|---------8-------|-7-------8-------|
A#|------------------|-----------------|-8---------------|-----------------|
 
    TP       TP        TP      TP        TP      TP        TP      TP
    H        H         H       H         H       H         H       H
C |------------------|-----------------|-----------------|-----------------|
G |------------------|-----------------|-----------------|-----------------|
D#|------------------|-----------------|-----------------|-----------------|
A#|------------------|-----------------|-----------------|-----------------|
F |-5-------/7-------|-8-------7-------|---------8-------|-7-------8-------|
A#|------------------|-----------------|-8---------------|-----------------|

      E  E E E E E E E     E  E E E E E E E
C |--------------------|--------------------|
G |--------------------|--------------------|
D#|--------------------|--------------------|
A#|---5--5-5-5-5-5-5-5-|---5--5-5-5-5-5-5-5S|
F |---5--5-5-5-5-5-5-5-|---5--5-5-5-5-5-5-5S|
A#|---5--5-5-5-5-5-5-5-|---5--5-5-5-5-5-5-5S|

      W                   +W
C |--------------------|--------------------|
G |--------------------|--------------------|
D#|--------------------|--------------------|
A#|-(12)---------------|-(12)---------------|
F |-(12)---------------|-(12)---------------|
A#|-(12)---------------|-(12)---------------|
 
      W                   +W
C |--------------------|--------------------|
G |--------------------|--------------------|
D#|--------------------|--------------------|
A#|--(8)---------------|--(8)---------------|
F |--(8)---------------|--(8)---------------|
A#|--(8)---------------|--(8)---------------|

      E  E E E E E E E     E  E E E E E E E
C |--------------------|---------------------|
G |--------------------|---------------------|
D#|--------------------|---------------------|
A#|---8--8-8-8-8-8-8-8-|---8--8-8-8-8-8-8-8--|
F |---8--8-8-8-8-8-8-8-|---8--8-8-8-8-8-8-8--|
A#|---8--8-8-8-8-8-8-8-|---8--8-8-8-8-8-8-8--|
 
     +W                   +W
C |--------------------|---------------------|
G |--------------------|---------------------|
D#|--------------------|---------------------|
A#|-(12)---------------|-(12)----------------|
F |-(12)---------------|-(12)----------------|
A#|-(12)---------------|-(12)----------------|
 
     +W                   +W
C |--------------------|---------------------|
G |--------------------|---------------------|
D#|--------------------|---------------------|
A#|--(8)---------------|--(8)----------------|
F |--(8)---------------|--(8)----------------|
A#|--(8)---------------|--(8)----------------|

[Outro]
[Gtrs I, II]
     ~~ PM  PM  PM    PM   PM   PM             ~         ~~~~~~~~~~        ~~
                                   |8-|
     Q  E E E E E E   E  E E  E E  E  E  E E   Q  E E E  Q.      Q   E E E Q.
C |-----------------|------------------------|----------------|------------------|
G |-----------------|------------------------|----------------|------------------|
D#|-----------------|------------------------|----------------|------------------|
A#|-----------------|------------------------|----------10----|------------------|
F |-/5----5---7---8-|---10---12---10h12p10-8-|------8p7-------|--------8-7-------|
A#|-----0---0---0---|-0----0----0------------|-8--8-----------|-10--10-----8-----|

     ~~ PM  PM  PM    PM   PM   PM                  PM     PM       PM
                                   |8-|
     Q  E E E E E E   E  E E  E E  E  E  E E   Q  E E Q  E E   Q  E E E +E  E E
C |-----------------|------------------------|---------------|-------------------|
G |-----------------|------------------------|---------------|-------------------|
D#|-----------------|------------------------|---------------|-------------------|
A#|-----------------|------------------------|-8--8---3--3---|-5--5---7-(7)-7-7--|
F |-/5----5---7---8-|---10---12---10h12p10-8-|-8--8-0-3--3-0-|-5--5-0-7-(7)-7-7--|
A#|-----0---0---0---|-0----0----0------------|-8--8-0-3--3-0-|-5--5-0-7-(7)-7-7--|

                >
    W          +W           +W           +W
C |----------|------------|------------|--------|
G |----------|------------|------------|--------|
D#|----------|------------|------------|--------|
A#|-0--------|-(0)--------|-(0)--------|-(0)----|
F |-0--------|-(0)--------|-(0)--------|-(0)----|
A#|-0--------|-(0)--------|-(0)--------|-(0)----|

*****************************************************************************************

[Duration Legend]
W - whole; H - half; Q - quarter; E - 8th; S - 16th; T - 32nd; X - 64th; a - acciaccatura
+ - note tied to previous; . - note dotted; .. - note double dotted
Uncapitalized letters represent notes that are staccato (1/2 duration)
Irregular groupings are notated above the duration line
Duration letters will always appear directly above the note/fret number it represents the
duration for.  Duration letters with no fret number below them represent rests.  Multi-
bar rests are notated in the form Wxn, where n is the number of bars to rest for.  Low
melody durations appear below the staff

[Tablature Legend]
 h   - hammer-on
 p   - pull-off
 b   - bend
 pb  - pre-bend
 r   - bend release (if no number after the r, then release immediately)
 /\  - slide into or out of (from/to "nowhere")
 s   - legato slide
 S   - shift slide
 - natural harmonic
[n]  - artificial harmonic
n(n) - tapped harmonic
 ~   - vibrato
 tr  - trill
 T   - tap
 TP  - trem. picking
 PM  - palm muting
\n/  - tremolo bar dip; n = amount to dip
 \n  - tremolo bar down
 n/  - tremolo bar up
/n\  - tremolo bar inverted dip
 =   - hold bend; also acts as connecting device for hammers/pulls
 <> - volume swell (louder/softer)
 x   - on rhythm slash represents muted slash
 o   - on rhythm slash represents single note slash

[Misc Legend]
 |  - bar
 |  - double bar
 |  - repeat start
 |  - repeat end
 |  - double bar (ending)
 |  - bar (freetime)
 |  - Segno
 |  - Coda

[Tempo markers]
 = BPM(8/16=s8/s16), where s8 = swing 8ths, s16 = swing 16ths

********************************************************************************************
Suggest correction
comments
print report bad tab
6 comments total. Showing first comments.
0 reply
whereami24 10 Feb 26, 2008 10:14 AM

omg its seth shadows!! and yet another excellent tab. keep up the good work bud.

0 reply
Skimp 10 Jun 25, 2008 09:39 PM

Great tab but still working on the solo

0 reply
TatarSalad2 130 Nov 28, 2008 11:19 AM

Solo sounds a tad bit off, but it's close enough.
Great Work!

guest
You may want to rate the tab now too:
select rating
Wanna post a correction for this tab? Suggest correction