Oops, an error
Loading. Please wait.

Dead Eternity Bass Tab

version 2
version 2

Whole song

337 views 1 this week
no commentswrite comment
1 2 3 4 5
3 more votes to show rating
add to favorites
launch autoscroll
font size
0
reset
guitar tuner
Autoscroll
slow
fast
+/-
esc
set tempo
stop
Help us to improve Ultimate-Guitar.com Take our survey!
×
Author
#----------------------------------PLEASE NOTE---------------------------------#
#This file is the author's own work and represents their interpretation of the #
#song. You may only use this file for private study, scholarship, or research. #
#------------------------------------------------------------------------------#

IN FLAMES - DEAD ETERNITY (BASS)
From the Album JESTER RACE

Transcribed by: DUFFMAN [inflame81@aol.com]

..  - palm mute          /  - slide up to
 \  - slide down to      ~  - vibrato
 h  - hammer on          b  - bend
 p  - pull off            Suffixes for bend
                          ph - pinch harmonic
                           f - full bend    h - half bend
*  - see comment           r - release      t - tap bend
X  - percussion mute       ~ - vibrato bend
@  - slight palm mute     () - ghost note, sustained note

Tune Bass to (C,F,Bb,Eb)
DEAD ETERNITY

Riff A.1 (INTRO)
|--------------------------------------------------------------|
|--------------------------------------------------------------|
|-----------------6-6-6-6--------------------------------------|
|3-3-3-3-3-3-3-3-------------1-1-1-1---------------------------|

Riff B
|--------------------------------------------------------------|
|--------------------------------------------------------------|
|-------------------------5-5-5-5-5-5--3-3-3-3-3-3-------------|
|3-3-3-3-3-3-3-3-3-3-3-3---------------------------------------|

Riff B Continued (the ending right before the bass solo)
|--------------------------------------------------------------|
|--------------------------------------------------------------|
|-----------------------5-5-5-5-5-5----------------------------|
|3-3-3-3-3-3-3-3-3-3-3---------------3-3--1-1-1-0--------------|

Riff C (Bass solo type thing)
|--------------------------------------------------------------|
|---9--------9-----9-------------------------------------------|
|------7--------7----------------------------------------------|
|0--------0-----------0-0--------------------------------------|

Riff D (heavy part)
|--------------------------------------------------------------|
|--------------------------------------------------------------|
|---------------------------------5-5-5-5-5-5-5-5-5-5-5-5------|
|3-3-3-3-3-3-3-3-3-3-3-3--2-2--3-------------------------------|

|--------------------------------------------------------------|
|--------------------------------------------------------------|
|-----------------2-2-2-2-0-0-2-2------------------------------|
|0-0-0-0-0-0-0-0-------------------2-2-2-2-2-2-2-2-0-0---------|

Riff E
|--------------------------------------------------------------|
|--------------------------------------------------------------|
|---2----------------------------------------------------------|
|0----3-3-3-3-3--2---------------------------------------------|

Riff F (Main Riff or Verse Riff)
|--------------------------------------------------------------|
|----------------------5-4~------------------------------------|
|-----5-5h7-7-------5-------------5-5h7-7--3-3-3--5-5-5-5------|
|0-0-----------0-0-----------0-0-------------------------------|

Riff F.1
|--------------------------------------------------------------|
|--------------------------------------------------------------|
|---------5/7-------3-3-3-3--5-5-5-5-5-5-5-5-------------------|
|0-0-0-0-------2-3---------------------------------------------|

Riff F.2
|--------------------------------------------------------------|
|-------------------------------5-4~---------------------------|
|---------5/7-------3-3-3-3--5---------------------------------|
|0-0-0-0-------2-3---------------------------------------------|

Riff G                                            h p
|------------------------------------------4-6-6-4-6-4----4----|
|------2/4-4~-------2/7-6~-----2/4-4~---7---------------7------|
|--------------------------------------------------------------|
|2-2-----------2-2----------2-2--------------------------------|

Riff H (Note: This is what the rhythm guitar plays here. The actual
              bass line is simply playing the open C string on the
              beat. I find that boring, so I play this.)
|--------------------------------------------------------------|
|---2----5----4------------------2-----------4-----------------|
|--------------------5-----3-----------5-----------------------|
|0----0----0-----0------0-----0-----0-----0--------------------|

Riff H.2
|--------------------------------------------------------------|
|---2-----5-----4-----------------2----------------------------|
|---------------------5-----3-----------5--3-------------------|
|0-----0-----0-----0-----0-----0-----0-------------------------|
Suggest correction
Give kudos to tab author, rate the tab!
1 2 3 4 5
comments
print report bad tab
guest
You may want to rate the tab now too:
select rating
Wanna post a correction for this tab? Suggest correction