Oops, an error
Loading. Please wait.

Dialogue With The Stars Tab

version 2
version 2

Whole song

Interactive

8,771 views 21 this week
no commentswrite comment
1 2 3 4 5
accurate
x 3
add to favorites
launch autoscroll
font size
0
reset
how to read this tab
guitar tuner
Tab Pro tools
  • play this tab
  • loop segment
  • change instrument
  • show fretboard
  • metronome
×
Best way to learn
"Dialogue With The Stars"
Autoscroll
slow
fast
+/-
esc
set tempo
stop
Dialogue With The Stars
In Flames
Whoracle

If you have any comments or find any errors in this tab, please email me (amyw666@hotmail.com)
I would also greatly appreciate it if someone could figure out the acoustic bit!

Standard Tuning, two steps down

h=hammer on
p=pull of
/=slide
~=vibrato
...=palm mute

Intro riff
C|----------------------------------|
G|----------------------------------|
E|----------------------------------|
B|----------------------------------|
F|-7-777-10--3-3333---10--9---------|
C|-5-555-8---1-1111---8---7---------|
        ....           ......

Riff A x 2  0:04
(Guitar 1)
C|------------------------------------------------------|
G|------------------------------------------------------|
E|-----------------h7-9--10-10-9------------------------|
B|-7-7-7-10--7-10----------------10--12-10h12p10-9------|
F|------------------------------------------------------|
C|------------------------------------------------------|

C|------------------------------------------------------|
G|------------------------------------------------------|
E|-----------------h7-9---------9--7h9p7----------------|
B|-7-7-7-10--7-10----------6-9-----------10-9-----------|
F|-----------------------7------------------------------|
C|------------------------------------------------------|

(Guitar 2)
C|------------------------------------------------------|
G|-------------------------10-10------------------------|
E|-----------9----9h10-12--------12-9--10-9h10p9--------|
B|-10-10-10---10-----------------------------------12---|
F|------------------------------------------------------|
C|------------------------------------------------------|

C|------------------------------------------------------|
G|------------------------------------------------------|
E|-----------9----9h10-12-----------12--10h12p10-9------|
B|-10-10-10---10--------------9-12----------------------|
F|-------------------------10---------------------------|
C|------------------------------------------------------|

Riff B x 2  0:19
(Guitar 1)
C|----------------------------------------|
G|----------------------------------------|
E|----------------------------------------|
B|----------------------------------------|
F|-7-7-xxx-7-7-xxx-7-7-xxx-------5--------|
C|-5-5-xxx-5-5-xxx-5-5-xxx-5-7-8--7-8-----|

C|------------------------------------------------------|
G|------------------------------------------------------|
E|--------------------------7----------------7-9-7------|
B|------------------7-9-10----10-9----9-10--------10----|
F|-7-7-xxx-7-7-xxx-----------------10-------------------|
C|-5-5-xxx-5-5-xxx--------------------------------------|

(Guitar 2)
C|----------------------------------------|
G|----------------------------------------|
E|----------------------------------------|
B|----------------------------------------|
F|-7-7-xxx-7-7-xxx-7-7-xxx-------5--------|
C|-5-5-xxx-5-5-xxx-5-5-xxx-5-7-8--7-8-----|

C|----------------------------10-----------------10-12-10--------|
G|------------------10-12-13----13-12----12-13-----------13------|
E|--------------------------------------12-----------------------|
B|---------------------------------------------------------------|
F|-7-7-xxx-7-7-xxx-----------------------------------------------|
C|-5-5-xxx-5-5-xxx-----------------------------------------------|

Repeat Riff A x 2  0:35
Repeat Riff B x 2  0:50

Riff C  1:05
(Guitars 1 & 2)
C|-----------------------------------------------|
G|-----------------------------------------------|
E|-----------------------------------------------|
B|-10--10-10-9-10-------------9-9--------9-12----|
F|-----------------7-7--7-9-10-----10-12---------|
C|-----------------------------------------------|

C|--------------------------------------------------|
G|-10--10-10----------------------------------------|
E|------------9-10-----------9-10-10-9--------------|
B|-----------------12-12--12-----------12-10-12-----|
F|--------------------------------------------------|
C|--------------------------------------------------|

C|-----------------------------------------------|
G|-----------------------------------------------|
E|-9--9-----------------------9-9--------9-12----|
B|-------9-10-----------9-10------10-12----------|
F|------------12-12--12--------------------------|
C|-----------------------------------------------|

C|---------------------------------------------------|
G|-10--10-10-----------------------------------------|
E|------------9-10-----------9-10-9------------------|
B|-----------------12-12--12--------12-10-9----------|
F|--------------------------------------------10-12--|
C|---------------------------------------------------|

Riff D x 2  1:20

(Guitar 1)
C|------------------------------------------------|
G|-13--13-12-10-12-13~---10----------10-13-12-----|
E|----------------------------12-10-12------------|
B|------------------------------------------------|
F|------------------------------------------------|
C|------------------------------------------------|
  |
C|-------------------------10-12-13-12-10----10-12------------|
G|-13--13-12-10-12-13~-------------------13-------13--12------|
E|------------------------------------------------------------|
B|------------------------------------------------------------|
F|------------------------------------------------------------|
C|------------------------------------------------------------|

(Guitar 2)
C|------------------------------------------------|
G|-17--17-15-13-15-17~---13----------13-17-15-----|
E|----------------------------16-14-16------------|
B|------------------------------------------------|
F|------------------------------------------------|
C|------------------------------------------------|
  |
C|-------------------------13-15-17-15-13----13-15----------|
G|-17--17-15-13-15-17~-------------------17-------17-15-----|
E|----------------------------------------------------------|
B|----------------------------------------------------------|
F|----------------------------------------------------------|
C|----------------------------------------------------------|

Repeat Riff C  1:35
Repeat Riff D x 2  1:50

Guitar 3 plays acoustic bit  2:06
(sorry, i haven't figured this out!)

Riff E   2:21
(Guitar 1)
C|----------------------------------------------------------------|
G|-----------------------------------------------------10---------|
E|----9-10-12--10--10-9---------10-9-10-----9-10-12-----12-10-----|
B|-12--------------------10-12-----------12-----------------------|
F|----------------------------------------------------------------|
C|----------------------------------------------------------------|
  |
C|--------------------------------------------------------------|
G|--------------------------------------------------------------|
E|----9-10-12--10--10-9---------10-9-10-----9-10-9--10-9--------|
B|-12--------------------10-12-----------12----------------12---|
F|--------------------------------------------------------------|
C|--------------------------------------------------------------|

(Guitar 2)
C|------------------------------------------------------8---------|
G|-------10-11--10--10-----------10----10-------10-11---11-10-----|
E|-10-12---------------12-9-10------12----10-12-------------------|
B|----------------------------------------------------------------|
F|----------------------------------------------------------------|
C|----------------------------------------------------------------|
  |
C|-----------------------------------------------------------------|
G|-------10-11--10--10-----------10----10-------10----10-----------|
E|-10-12---------------12-9-10------12----10-12----12----12-10-----|
B|-----------------------------------------------------------------|
F|-----------------------------------------------------------------|
C|-----------------------------------------------------------------|

Repeat Riff A x 2  2:36

Riff F 2:51
(Guitar 1)
C|-------------------------------------------------|
G|------------------------------------------10-10--|
E|-----------------h7-9-10-10-9--------------------|
B|-7-7-7-10--7-10---------------10-/12-10----------|
F|-------------------------------------------------|
C|-------------------------------------------------|

(Guitar 2)
C|--------------------------------------/10-------------|
G|--------------------------10-10----------13---13-13---|
E|-----------9-----9h10-12-------12-9-------------------|
B|-10-10-10----10---------------------------------------|
F|------------------------------------------------------|
C|------------------------------------------------------|

That's it! Enjoy.
comments
We did not receive enough feedback on this tab! Please rate:
print report bad tab
1 2 3 4 5
I want to post or [tab]
guest
You may want to rate the tab now too:
select rating
Please do not post tabs as comments. Select "correction" instead!