Oops, an error
Loading. Please wait.

Dialogue With The Stars Tab

version 3
version 3

Whole song

Interactive

14,750 views 24 this week
4 commentsread comments
1 2 3 4 5
excellent!
x 8
add to favorites
launch autoscroll
font size
0
reset
how to read this tab
guitar tuner
Tab Pro tools
  • play this tab
  • loop segment
  • change instrument
  • show fretboard
  • metronome
×
Best way to learn
"Dialogue With The Stars"
Autoscroll
slow
fast
+/-
esc
set tempo
stop
Contributor
Difficulty
Tuning
Tabbers playing skills
intermediate
C F A# D# G C
advanced
Band: In Flames
Album: Whoracle
Song: Dialogue With The Stars

Key:
 /=slide up
 \=slide down
 h=hammer-on
 p=pull-off
 ~=vibrato
 +=harmonic
 x=mute note
 *=let ring
 PM=palm mute
Tabbed by: humpacow6
humpacow47@hotmail.com

2 steps down
(C-F-A#-D#-G-C)Guitar 1
(C-F-A#-D#-G-C)Guitar 2

Guitar 1 is shown first, then Guitar 2.

Guitar 1:

Intro - Guitar 1
|------------------------------|
|------------------------------|
|--2--2-2-2-5-------------5-4--|
|--2--2-2-2-5--3--3-3-3-3-5-4--|
|--0--0-0-0-3--3--3-3-3-3-3-2--|
|--------------1--1-1-1-1------|

Riff 1 - Guitar 1
|------------------------------------------------------|
|------------------------------------------------------|
|--2-2-2-2-5-5---------5-5-4--2-2-2-2-5-5--------------|
|--2-2-2-2-5-5-3-3-3-3-5-5-4--2-2-2-2-5-5-2-2-2-2-5-5--|
|--0-0-0-0-3-3-3-3-3-3-3-3-2--0-0-0-0-3-3-2-2-2-2-5-5--|
|--------------1-1-1-1--------------------0-0-0-0-3-3--|x2


Riff 2 - Guitar 1
|---------------------------------------------|
|---------------------------------------------|
|--2-x-x-x-x-2-x-x-x-x-2-x-x-x-x--------------|
|--2-x-x-x-x-2-x-x-x-x-2-x-x-x-x--------------|
|--0-x-x-x-x-0-x-x-x-x-0-x-x-x-x-0-2-3-2-0----|
|------------------------------------------3--|


|---------------------------|
|---------------------------|
|--2-x-x-x-2-x-x-x---5------|
|--2-x-x-x-2-x-x-x-3-5-2-5--|
|--0-x-x-x-0-x-x-x-3-3-2-5--|
|------------------1---0-3--|x2


Riff 3 - Guitar 1                  | Guitar 1(Acoustic)
|----------------------------------|--0--1--3---0---3--0--1-3-0--|
|----------------------------------|--3--1--0---1---0--3--1-0-1--|
|--2-2-----------------2-2---------|--2--2--0---2---0--2--2-0-2--|
|--2-2-----------------2-2-------5-|--0--3--0---2---0--0--3-0-2--|
|--0-0-----------------0-0-------5-|-----3--2---0---2-----3-2-0--|
|--------------------------------3-|-----1--3-------3-----1-3----|


Riff 4 - Guitar 1
|-------------|------------|
|-------------|------------|
|--2----------|--2---5-----|
|--2---3---5--|--2---5---5-|
|--0---3---5--|--0---3---5-|
|------1---3--|----------3-|


Riff 5 - Guitar 1 (Acoustic)
|--0----1----0----0---1---3---0---0--|
|--3----1----2----3---1---0---2---3--|
|--2----2----2----2---2---0---2---2--|
|--0----3----2----0---3---0---2---0--|
|-------3----0--------3---2---0------|
|-------1-------------1---3----------|x4

Outro - Guitar 1
|------------------------------------|
|------------------------------------|
|--2--2-2-2-5-------------5-4--------|
|--2--2-2-2-5--3--3-3-3-3-5-4--7-7\--|
|--0--0-0-0-3--3--3-3-3-3-3-2--7-7\--|
|--------------1--1-1-1-1------5-5\--|

Guitar 2:

Intro - Guitar 2
|-------------------------------|
|-------------------------------|
|-------------------------------|
|-------------------------------|
|--7--7-7-7-10--3--3-3-3-10-9---|
|--5--5-5-5-8---1--1-1-1-8--7---|

Riff 1 - Guitar 2
|-------------------------------------------------|
|---------------------------10-10-8-5--5h6p5------|
|-------------9-----------9-------------------7---|
|--10-10-7-10---10--10-12-------------------------|
|-------------------------------------------------|
|-------------------------------------------------|

                                   |first time |  second time |
|---------------------------------|-----------|--------------|
|-------------------------------8-|-5h6p5-----|--5h6p5-------|
|-------------9---------9-----7---|--------7--|--------7-9~--|
|--10-10-7-10---10-7-10-----9-----|-----------|--------------|
|-------------------------7-------|-----------|--------------|
|---------------------------------|-----------|--------------|x2


Riff 2 - Guitar 2
|---------------------------------------------|
|-----12-13-15-13-12-12-13-15-13-12-15-13~\---|
|--14-----------------------------------------|
|---------------------------------------------|
|---------------------------------------------|
|---------------------------------------------|x2


Riff 3 - Guitar 2
|---------------------------------------------------------|
|--5-5-5----------------5-5-----5-8~---10-10-10-8---------|
|--------7-5--------4-5-----5-7-------------------10-7-7--|
|------------7---7----------------------------------------|
|---------------------------------------------------------|
|---------------------------------------------------------|

|--------------------------|
|--------------------------|
|-----7-9-10---9-7-----7~--|
|--10---------------10-----|
|--------------------------|
|--------------------------|

|---------------------------------------------------------|
|--5-5-5----------------5-5-----5-8~---10-10-10-8---------|
|--------7-5--------4-5-----5-7-------------------10-7-7--|
|------------7---7----------------------------------------|
|---------------------------------------------------------|
|---------------------------------------------------------|

|----------------------------|
|----------------------------|
|-----7-9-10-9-7-------------|
|--10------------10-9----7~--|
|---------------------10-----|
|----------------------------|



Riff 4 - Guitar 2
|-------------------------------------------------|
|--13~~-13-12-10-12--13~~-10----------10-13-12~~--|
|----------------------------12-10-12-------------|
|-------------------------------------------------|
|-------------------------------------------------|
|-------------------------------------------------|

|----------------------------13-15-17-15-13-12-13-15----------|
|--13~~-13-12-10-12--13~~-10-------------------------13~12~---|
|-------------------------------------------------------------|
|-------------------------------------------------------------|
|-------------------------------------------------------------|
|-------------------------------------------------------------|x2

Riff 5 - Guitar 2 (play over Riff 5)
|-------------------------------------------------------|
|---------8-------------------------------8-10-8--------|
|--7-9-10---10-10-9----7~-10-9-10-7~-9-10--------10~----|
|-------------------10----------------------------------|
|-------------------------------------------------------|
|-------------------------------------------------------|


|-------------------------------------------------------|
|---------8---------------------------------------------|
|--7-9-10---10-10-9----7~-10-9-10-7~-9-10-9-10-9-7------|
|-------------------10----------------------------------|
|-------------------------------------------------------|
|-------------------------------------------------------|

Outro - Guitar 2
|-------------------------------------------------|
|---------------------------10-10-8-6-5-10~-10~\--|
|-------------9-----------9-----------------------|
|--10-10-7-10---10--10-12-------------------------|
|-------------------------------------------------|
|-------------------------------------------------|

Order:
Intro - Both Guitars
Riff 1 - x2-Both Guitars 
Riff 2 - x2-Both Guitars
Riff 1 - x2-Both Guitars
Riff 2 - x2-Both Guitars
Riff 3 - x1-Both Guitars
Riff 4 - x2-Both Guitars
Riff 3 - x1-Both Guitars
Riff 4 - x2-Both Guitars
Riff 5 - x1-(Guitar 1 x4)(Guitar 2 x1)
Riff 1 - x2-Both Guitars
Outro - Both Guitars
comments
print report bad tab
4 comments total. Showing first comments. show 1 bad comment
+1 reply
emr_steelmech wrote on March 4 2007, 02:23 am

nice tab, but the tuning is off by a whole step. Should be: C-F-A#-D#-G-C. Note that and i'll give ya five stars :)

0 reply
breadtruck wrote on July 28 2011, 02:46 pm

few mistakes here and there but pretty accurate generally and easily the best tab of it on this site.

I want to post or [tab]
guest
You may want to rate the tab now too:
select rating
Please do not post tabs as comments. Select "correction" instead!