Oops, an error
Loading. Please wait.

Disconnected Tab

version 2
version 2

Whole song

Interactive

1,881 views 12 this week
no commentswrite comment
1 2 3 4 5
please rate
add to favorites
launch autoscroll
font size
0
reset
how to read this tab
guitar tuner
Tab Pro tools
  • play this tab
  • loop segment
  • change instrument
  • show fretboard
  • metronome
×
Best way to learn
"Disconnected"
Autoscroll
slow
fast
+/-
esc
set tempo
stop
Difficulty
Tuning
intermediate
B F# B E G# C#
tuning: drop A#
only the rhythm guitar.
==============================

INTRO:
C   ||--------------------------|--------------------------|
G   ||--------------------------|--------------------------|
D#  ||--------------------------|--------------------------|
A#  ||--------------------------|--------------------------|
F   ||-----5-----------8--------|-----5-----------7--------|
A#  ||--0-----0--0--8-----0--0--|--0-----0--0--8-----0--0--|


--------------------------|--------------------------|
--------------------------|--------------------------|
--------------------------|--------------------------|
--------------------------|--------------------------|
-----5-----------8--------|-----5--------------------|
--0-----0--0--8-----0--0--|--0-----0--0--8--7--5--3--|


BAND IN:
--------------------------|--------------------------|
--------------------------|--------------------------|
--------------------------|--------------------------|
--------------------------|--------------------------|
-----5-----------8--------|-----5-----------7--------|
--0-----0--0--8-----0--0--|--0-----0--0--8-----0--0--|

 
--------------------------|--------------------------|
--------------------------|--------------------------|
--------------------------|--------------------------|
--------------------------|--------------------5--7--|
-----5-----------8--------|-----5-----------5--------|
--0-----0--0--8-----0--0--|--0-----0--0--5-----------|


--------------------------|--------------------------|
--------------------------|--------------------------|
--------------------------|--------------------------|
--------------------------|--------------------------|
-----5-----------8--------|-----5-----------7--------|
--0-----0--0--8-----0--0--|--0-----0--0--8-----0--0--|


--------------------------|--------------------------|
--------------------------|--------------------------|
--------------------------|--------------------------|
--------------------------|--------------------------|
-----5-----------8--------|-----5--------5--3--------|
--0-----0--0--8-----0--0--|--0-----0--0--------8--7--|


--------------------------|--------------------------|
--------------------------|--------------------------|
--------------------------|--------------------------|
--------------------------|--------------------------|
-----5-----------8--------|-----5-----------7--------|
--0-----0--0--8-----0--0--|--0-----0--0--8-----0--0--|


--------------------------|--------------------------|---------------------------|
--------------------------|--------------------------|---------------------------|
--------------------------|--------------------------|---------------------------|
--------------------------|--------------------5--7--|--------5--7--7--8--8--10--|
-----5-----------8--------|-----5-----------5--------|-----5---------------------|
--0-----0--0--8-----0--0--|--0-----0--0--5-----------|--5------------------------|


 VERSE:
---------------------------|-----------------------------|--------------------------|
---------------------------|-----------------------------|--------------------------|
---------------------------|-----------------------------|--------------------------|
---------------------------|-----------------------------|--------------------------|
---5--------------------8--|--5--------------------------|--5-----------3-----------|
------0--0--0--8--0--0-----|-----0--0--0--0--0--0--7--8--|-----0--0--0-----3--3--3--|


-----------------------------|
-----------------------------|
-----------------------------|  x4
-----------------------------|
--8-----7-------------7--8---|
-----8-----8--10--10---------|


CHORUS:                         pick slide
---------------------|---------------------|
---------------------|---------------------|
---------------------|---------------------|
---------------------|---------------------|
--8------------------|---------------------|
--8------------------|-----------12\-------|

---------------------|---------------------|
----------------6----|---------------------|
---------------------|---------------------|
---------7-----------|---------------------|
--5------------------|---------------------|
---------------------|---------------------|
  
---------------------|---------------------|
----------------1----|-----------1---------|
---------------------|---------------------|
---------3-----------|------3---------3----|
--1------------------|---------------------|
---------------------|---------------------|

---------------------|---------------------|
----------------6----|----------------3----|
---------------------|---------------------|   repeat chorus bars 5-8 x2
---------7-----------|---------5-----------|
--5------------------|--3------------------|
---------------------|---------------------|

BRIDGE:
--------------------------|----------------------------|
--------------------------|----------------------------|
--------------7--7--------|-----7--------7-9-7---------|
--0--0--0--0--------0--0--|--0-----0--0---------10--7--|
--------------------------|----------------------------|
--------------------------|----------------------------|

----------------------------|-----------------------------|
----------------------------|-----------------------------|
--10--10--------7--7--------|--7-9-7----------------7--9--|    x2
----------0--0--------0--0--|---------10--7--8--10--------|
----------------------------|-----------------------------|
----------------------------|-----------------------------|


----------------------------------|----------------------------------|
----------------------------------|----------------------------------|
--15--15--15--15--15--15--15--15--|--15--15--15--15--15--15--17--19--|
----------------------------------|----------------------------------|
----------------------------------|----------------------------------|
----------------------------------|----------------------------------|

----------------------------------|----------------------------------|
----------------------------------|----------------------------------|
--17--17--17--17--17--17--17--17--|--17--19--19--21--21--22--22--24--|   22 on the next bar
----------------------------------|----------------------------------|      back to verse
----------------------------------|----------------------------------|
----------------------------------|----------------------------------|

repeat
CHORUS
BRIDGE


INTERLUDE:
--------------------------|--------------------------|
--------------------------|--------------------------|
--------------------------|--------------------------|
--------------------------|-----------------5-----7--|
--------5--------5--------|--8--------7--------------|
--0--0-----0--0-----0--0--|-----0--0-----0-----0-----|

--------------------------|--------------------------|
--------------------------|--------------------------|
--------------------------|--------------------------|     x2
--------------------------|--------------------------| 
--------5--------5--------|--8-----7-----------3--5--|
--0--0-----0--0-----0--0--|-----0-----0--7--8--------|

--------------------------|--------------------------|
--------------------------|--------------------------|
--------------------------|--------------------------|   
--3--3--3--3--3--3--3--3--|--3--3--3--3--3--3--3--3--|
--1--1--1--1--1--1--1--1--|--1--1--1--1--1--1--1--1--|
--------------------------|--------------------------|

--------------------------|--------------------------|
--------------------------|--------------------------|
--------------------------|--------------------------|   
--5--5--5--5--5--5--5--5--|--2--2--2--2--2--2--2--2--|
--3--3--3--3--3--3--3--3--|--0--0--0--0--0--0--0--0--|
--------------------------|--------------------------|

repeat interlude section

repeat intro section


BREAK:
---------------------|---------------------|---------------------|
---------------------|----------------8----|---------------------|
----------------7----|----------------9----|----------------7----|
---------5------5----|---------9-----------|---------5------5----|
--3------------------|--7------------------|--3------------------|
---------------------|---------------------|---------------------|
                      
---------------------|---------------------|
---------------------|---------------------|
---------------------|---------------------|
--5------------------|--7------------------|
--7------------------|--5------------------|
---------------------|---------------------|


repeat CHORUS x2

repeat VERSE riff


comments
We did not receive enough feedback on this tab! Please rate:
print report bad tab
1 2 3 4 5
I want to post or [tab]
guest
You may want to rate the tab now too:
select rating
Please do not post tabs as comments. Select "correction" instead!