Oops, an error
Loading. Please wait.

Dismiss The Cynics Tab

version 1
version 1

Whole song

Interactive

1,728 views 1 this week
1 commentread comment
1 2 3 4 5
accurate
x 5
add to favorites
launch autoscroll
font size
0
reset
how to read this tab
guitar tuner
Autoscroll
slow
fast
+/-
esc
set tempo
stop
Help us to improve Ultimate-Guitar.com Take our survey!
×
Author
MASTER JiMMY 1,265
----------------------------------------------------------------------------
                     DISMISS THE CYNICS - In Flames
----------------------------------------------------------------------------
Tabbed by: Jaymz
Email: the.master.ofpuppets@hotmail.com

Tuning: C Standard (C F Bb Eb G C)

Intro: Both Guitars
|----------------------------------------------------------------------|
|----------------------------------------------------------------------|
|----------------------------------------------------------------------|
|---------------------------0--2--4--------------------/5-4---5-4------|
|-----------------2------3---------------------------2------3-----5----|
|--000000000--2-3----2-3--------------000000000--2-3-------------------|
   *********  * *    * *              *********  * *

Guitar I:
|----------------------------------------------------------------------|
|----------------------------------------------------------------------|
|----------------------------------------------------------------------|
|---------------------------0--2--4--------------------/5-4---5-4------|
|-----------------2------3---------------------------2------3-----5----|
|--000000000--2-3----2-3--------------000000000--2-3-------------------|
   *********  * *    * *              *********  * *

Guitar II:
|----------------------------------------------------------------------|
|----------------------------------------------------------------------|
|----------------------------------------------------------------------|
|-------------2~~~~~~~~~~~-----------------------------/5-4---5-4------|
|-------------2~~~~~~~~~~~---------------------------2------3-----5----|
|--000000000--0~~~~~~~~~~~------------000000000--2-3-------------------|
   *********                          *********  * *

Guitar I:
|----------------------------------------------------------------------|
|----------------------------------------------------------------------|
|----------------------------------------------------------------------|
|---------------------------0--2--4--------------------/5-4---5-4------|
|-----------------2------3---------------------------2------3-----5----|
|--000000000--2-3----2-3--------------000000000--2-3-------------------|
   *********  * *    * *              *********  * *

Guitar II:
|----------------------------------------------------------------------|
|----------------------------------------------------------------------|
|------------------------------0--2--------------------/5-4---5-4------|
|-----------------2~-----4--4------------------------2------3-----5----|
|----------------------------------------------------------------------|
|--000000000--2-3----2-3--------------000000000--2-3-------------------|
   *********  * *    * *              *********  * *

Guitar I:
|----------------------------------------------------------------------|
|----------------------------------------------------------------------|
|----------------------------------------------------------------------|
|---------------------------0--2--4--------------------/5-4---5-4------|
|-----------------2------3---------------------------2------3-----5----|
|--000000000--2-3----2-3--------------000000000--2-3-------------------|
   *********  * *    * *              *********  * *

Guitar II:
|----------------------------------------------------------------------|
|----------------------------------------------------------------------|
|------------------------------0--2--------------------/5-4---5-4------|
|-----------------2~-----4--4------------------------2------3-----5----|
|----------------------------------------------------------------------|
|--000000000--2-3----2-3--------------000000000--2-3-------------------|
   *********  * *    * *              *********  * *

Guitar I:
|-------------------------------------------------------------------------|
|-------------------------------------------------------------------------|
|-------------------------------------------------------------------------|
|-2~~~~---------7~~~~~~----------5~~~~~-----------/7~~~~~~----------------|
|-2~~~~---------7~~~~~~----------5~~~~~-----------/5~~~~~~----------------|
|-0~~~~---------5~~~~~~----------3~~~~~-----------------------------------|

Guitar II:
|---------------------------------------------------------------|
|---------------------------------------------------------------|
|-9--12-11--9-----------9-7----------------12-/14--12-11--------|
|-------------10~---7-9-----10-9---------12--------------12-----|
|--------------------------------10~~--10-----------------------|
|---------------------------------------------------------------|
Guitar II:
|---------------------------------------------------------------|
|--------------------------13-12-13-12~~~--12-13-12-10---8-7----|
|-9--12-11--9-----------9-----*------------------------------7--|
|-------------10~---7-9-----------------------------------------|
|---------------------------------------------------------------|
|---------------------------------------------------------------|

Verse:
|----------------------------------------------------------------------|
|----------------------------------------------------------------------|
|----------------------------------------------------------------------|
|--9-----10---7---9---------------------------------9-----10---7---9---|
|--7-----8----5---7---------------------------------7-----8----5---7---|
|----0-0----0---0-------------------------------------0-0----0---0-----|
     * *    *   *                                     * *    *   *

Guitar I:
|-------------------------------------|
|-------------------------------------|
|-------------------9------7----------|
|-----------------9----------7--------|
|--3--2--------/7--------5-----5------|
|--------3----------------------------|

Guitar II:                                  (not 100% sure about this bit)
|---0------------0--------------------|
|----0------------0-------------------|
|-------------------------------------|
|-------------------------------------|
|--3--2--2----/7--------5--5----------|
|--------3-----------------3----------|

Guitar I:
|----------------------------------------------------------------------|
|----------------------------------------------------------------------|
|----------------------------------------------------------------------|
|---------------------------0--2--4--------------------/5-4---5-4------|
|-----------------2------3---------------------------2------3-----5----|
|--000000000--2-3----2-3--------------000000000--2-3-------------------|
   *********  * *    * *              *********  * *

Guitar II:
|----------------------------------------------------------------------|
|----------------------------------------------------------------------|
|------------------------------0--2--------------------/5-4---5-4------|
|-----------------2~-----4--4------------------------2------3-----5----|
|----------------------------------------------------------------------|
|--000000000--2-3----2-3--------------000000000--2-3-------------------|
   *********  * *    * *              *********  * *

|----------------------------------------------------------------------|
|----------------------------------------------------------------------|
|----------------------------------------------------------------------|
|--9-----10---7---9---------------------------------9-----10---7---9---|
|--7-----8----5---7---------------------------------7-----8----5---7---|
|----0-0----0---0-------------------------------------0-0----0---0-----|
     * *    *   *                                     * *    *   *

Guitar I:
|-------------------------------------|
|-------------------------------------|
|-------------------9------7----------|
|-----------------9----------7--------|
|--3--2--------/7--------5-----5------|
|--------3----------------------------|

Guitar II:                                  (not 100% sure about this bit)
|---0------------0--------------------|
|----0------------0-------------------|
|-------------------------------------|
|-------------------------------------|
|--3--2--2----/7--------5--5----------|
|--------3-----------------3----------|


at 1:02

Guitar I: clean and very soft, i think he may even use some effect, except for the last 6~~~
|---------------------0-----0---------------------------------------------|
|-------------------0-----0-----------------------------------------------|
|------4------2--------------------4-----2--------------------------------|
|----5------2--------------------5-----2----------------------------------|
|--3------0--------------------3-----0------6~~~~~~~~~~~~~~~~~~~~~~~~~~~~-|
|----------------0------0-------------------------------------------------|

Guitar II:
|------12---14-15-14---12--------------------------------------------------|
|--12----------------------12----------------------------------------------|
|--------------------------------------------------------------------------|
|-------------------------------------------6~~~~~~~~~~~~~~~~~~~~~~~-------|
|--------------------------------------------------------------------------|
|--------------------------------------------------------------------------|

Im pretty sure this chorus bit is just the same chords as the beginning
|-------------------------------------------------------------------------|
|-------------------------------------------------------------------------|
|-------------------------------------------------------------------------|
|-2~~~~---------7~~~~~~----------5~~~~~-----------/7~~~~~~----------------|
|-2~~~~---------7~~~~~~----------5~~~~~-----------/5~~~~~~----------------|
|-0~~~~---------5~~~~~~----------3~~~~~-----------------------------------|

Then play the intro riff once more before going into the second verse played like this:
|----------------------0----0-----0----------0------------|
|---------------------0----0-------0----------0-----------|
|---------------------------------------------------------|
|--9-----10---7-----12---16-----2-------------------------|
|--7-----8----5-----10---14-----3----2-2---/7----5-5------|
|----0-0----0---0----------------------3-----------3------|
     * *    *   *

now play those 4 chords again for the 'chorus'

and now play this mellow part (i think hes using a phaser or whatever u FX freaks call 
either way its kinda hard to hear so just play so,ething like this u bastards)
|------3--------0-------2-------0--------3------0---------------|
|----0--------0-------0-------0--------0------0-----------------|
|---------------------------------------------------------------|
|-------------------0-----------------------------------0-------|
|--3--------0------------------------3------0---------5---------|
|---------------------------0-----------------------3-----------|

keep playing that and play this lead (use a single coil pickup or something like an EMG 
i really dont know, just try and get that soft sound)
|--------------------------------------------------------------------------|
|------------------------------------------------12-----12--10----10-------|
|---------------------11/12\11-9-11~~~(b12)\----9--------------12----12-11-|
|------14/17-14~~~~~---------------------------9-------9-------------------|
|---12---------------------------------------------------------------------|
|--------------------------------------------------------------------------|

and some where near the end the rhythm guitar plays something like this except an octave higher
|----------------------------------------------------------------------------|
|----------------------------------------------------------------------------|
|----------------------------------------------------------------------------|
|------0-----0-----2-----0-----0---------------------------------------------|
|----5-----5-----5-----5-----5-----------------------------------------------|
|--3-----3-----3-----3-----3-------------------------------------------------|

OK this next part was a pain in the ass coz theres like 3 guitars so heres my best shot
Guitar I:
|-----------------------------------------------------------------------|
|-----------------------------------------------------------------------|
|-----------------------------------------------------------------------|
|------5-4---2----------2------------------4---2------------------------|
|----2-----------3----------5---3---5--------------5--------------------|
|--0-------0---0------0------------------0-------------3--3-3--5--5-5---|
   * * * * * * *      * *   *   *   *    * *   *   *   *  * *  *  * *
Guitar I: continued
|--------------------------------------------------------------------------|
|--------------------------------------------------------------------------|
|--------------------------------------------------------------------------|
|------5-4---2---5-5-5-5-5-5-5--7-7-7-7-7-7-7-------------------4-4-4-4-4--|
|----2-----------3-3-3-3-3-3-3--5-5-5-5-5-5-5---5--5-5--7--7-7--2-2-2-2-2--|
|--0-------0---0--------------------------------3--3-3--5--5-5-------------|
   * * * * * * *


Guitar II: something similar to this
|-------------------------------------------------------------------|
|-------------------------------------------------------------------|
|-------------------------------------------------------------------|
|------/5\4-2---/5\4-2-----1/2p0-----------/4-2----------0------2---|
|----2--------2--------3----------3p2-0---------5-3----2------2-----|
|--0------------------------------------5------------3------5-------|
   * * * * * * * * * * *   * * * * * * * ** * * * * ** * * * * **
Guitar II: continued
|-------------------------------------------------------------------------|
|-------------------------------------------------------------------------|
|-------------------------------------------------------------------------|
|--5-5-5-5-5-5--2-2-2-2-2-2--4-4-4-4-4-4----------------------------------|
|--2-2-2-2-2-2--3-3-3-3-3-3--5-5-5-5-5-5--5--5-5--7--7-7-9-9-9-9-9-9-9-9--|
|--0-0-0-0-0-0----------------------------3--3-3--5--5-5-7-7-7-7-7-7-7-7--|

Guitar III:
|------------------------------------------------------------|
|------------------------------------------------------------|  X2
|---9--12-11--9--------9--------------11-9----11~-9~-11------|
|----------------10~~----12-10-12~~~-------12----------------|
|------------------------------------------------------------|
|------------------------------------------------------------|
Guitar III: continued after the second time
|---------------------|
|---------------------|
|--/12~~--11---9h11---|
|---------------------|
|---------------------|
|---------------------|

Guitar IV?: i think this comes in the second time guitar III plays the lead
|----------------------------------------------------------|
|---8--11--10--------8-------------10-8-----10~-8~-10~-----|
|--------------9~~-----11-9-11-----------11----------------|
|----------------------------------------------------------|
|----------------------------------------------------------|
|----------------------------------------------------------|
Guitar IV: continued
|------------------------|
|--/12--10--8h10(p8\7)---|
|------------------------|
|------------------------|
|------------------------|
|------------------------|


Now play this chorus again
|----------------------------------------------------------------------|
|----------------------------------------------------------------------| X2
|----------------------------------------------------------------------|
|-2~~~~---------7~~~~~~----------5~~~~~-----------/7~~~~~~-------------|
|-2~~~~---------7~~~~~~----------5~~~~~-----------/5~~~~~~-------------|
|-0~~~~---------5~~~~~~----------3~~~~~--------------------------------|

|----------------------------------------------------------------------|
|----------------------------------------------------------------------| X2
|----------------------------------------------------------------------|
|-4~~~~---------9~~~~~~----------7~~~~~-----------/9~~~~~~-------------|
|-4~~~~---------9~~~~~~----------7~~~~~-----------/7~~~~~~-------------|
|-2~~~~---------7~~~~~~----------5~~~~~--------------------------------|

the first time u play the alt chorus a lead guitar plays this lead at the  7 chord
7
5

|---------------------|
|---------------------|
|---------------------|
|---11--11\9-9-7-6----|
|---------------------|
|---------------------|

and finish with a big:
Guitar I:
|----------------------------------------------------------------------|
|----------------------------------------------------------------------|
|----------------------------------------------------------------------|
|---------------------------0--2--4--------------------/5-4---5-4------|
|-----------------2------3---------------------------2------3-----5----|
|--000000000--2-3----2-3--------------000000000--2-3-------------------|
   *********  * *    * *              *********  * *

Guitar II:
|----------------------------------------------------------------------|
|----------------------------------------------------------------------|
|------------------------------0--2--------------------/5-4---5-4------|
|-----------------2~-----4--4------------------------2------3-----5----|
|----------------------------------------------------------------------|
|--000000000--2-3----2-3--------------000000000--2-3-------------------|
   *********  * *    * *              *********  * *


Guitar I:
|----------------------------------------------------------------------|
|----------------------------------------------------------------------|
|----------------------------------------------------------------------|
|---------------------------0--2--4--------------------/5-4---5-4------|
|-----------------2------3---------------------------2------3-----5----|
|--000000000--2-3----2-3--------------000000000--2-3-------------------|
   *********  * *    * *              *********  * *

Guitar II:
|----------------------------------------------------------------------|
|----------------------------------------------------------------------|
|------------------------------0--2--------------------/5-4---5-4------|
|-----------------2~-----4--4------------------------2------3-----5----|
|----------------------------------------------------------------------|
|--000000000--2-3----2-3--------------000000000--2-3-------------------|
   *********  * *    * *              *********  * *

Guitar I:
|----------------------------------------------------------------------|
|----------------------------------------------------------------------|
|----------------------------------------------------------------------|
|---------------------------0--2--4--------------------/5-4---5-4------|
|-----------------2------3---------------------------2------3-----5----|
|--000000000--2-3----2-3--------------000000000--2-3-------------------|
   *********  * *    * *              *********  * *

Guitar II:
|----------------------------------------------------------------------|
|----------------------------------------------------------------------|
|------------------------------0--2--------------------/5-4---5-4------|
|-----------------2~-----4--4------------------------2------3-----5----|
|----------------------------------------------------------------------|
|--000000000--2-3----2-3--------------000000000--2-3-------------------|
   *********  * *    * *              *********  * *

Guitar I:
|--------------------------|
|--------------------------|
|--------------------------|
|--------------------------|
|-------------2~~~~~~------|
|--000000000--0~~~~~~------|
   *********

Guitar II:
|--------------------------|
|--------------------------|
|--------------------------|
|-------------2~~~~~~------|
|--------------------------|
|--000000000---------------|
   *********


So ther ya have it Jess. Dismiss the Cynics as acurate as I could get it. It was a trek 
tab out, so enjoy, hope it helps. Everyone else, vote and comment

Good night.

| /  slide up
| \  slide down
| h  hammer-on
| p  pull-off
| ~  vibrato
| +  harmonic
| x  Mute note
============================================================================
Suggest correction
What's this?
You can suggest a correction to this tab. Community and Mods will review your correction and vote to approve or reject it.
comments
print report bad tab
1 comment total.
0 reply
TatarSalad2 1,891 wrote on January 28 2009, 08:05 pm

I think it was perfect. Excellent job, especially with those really quiet mellow parts.

guest
You may want to rate the tab now too:
select rating
Please do not post tabs as comments. Select "correction" instead!