Oops, an error
Loading. Please wait.

Dismiss The Cynics Tab

version 2
version 2

Whole song

Interactive

1,260 views 3 this week
1 commentread comment
1 2 3 4 5
x 3
add to favorites
launch autoscroll
font size
0
reset
how to read this tab
guitar tuner
Autoscroll
slow
fast
+/-
esc
set tempo
stop
Help us to improve Ultimate-Guitar.com Take our survey!
×
Author
Difficulty
Tuning
intermediate
A# F A# D# G C
                    This was requested by quite a few
                      people so here it is people
                       It's in Drop A#/Sharp.
                         




~ - let ring
h - hammer on
p - pull off
/ - slide
b - bend
x - times played



Intro
|----------------------------------------------------------------|-
|----------------------------------------------------------------|--
|-------------------------------------------------0-----0--------|---
|-------------------------0-2-4---------------------4-----4-0----|---- x 4
|-----------------2-----3-----------------------3-----0----------|---
|--222222222--4-5---4-5----------222222222--4-5------------------|-


|--0---3-2---0----------0--------------------3-3b-2-------|-
|----0-----0---0-1----1---3-1-0--------0-1-3--------3-----|--
|-------------------2-----------0--0-2--------------------|---
|---------------------------------------------------------|---- x 1
|---------------------------------------------------------|---
|---------------------------------------------------------|-


|--0---3-2---0----------0--8-0-8-7---7-8-7-5--3-2---------|-
|----0-----0---0-1----1---------------------------3-------|--
|-------------------2--------------7----------------------|---
|---------------------------------------------------------|---- x 1
|---------------------------------------------------------|---
|---------------------------------------------------------|-


|------------------------------------|-
|------------------------------------|--
|--4-------5-----2-----4-------------|---
|--2-------3-----0-----2-------------|---- x 2
|------------------------------------|---
|-----2-2-----2-----2----------------|-


|-----0--------------0-----0/2-------|-
|-----------3-0----------------------|--
|------------------------------------|---
|----------------2------2--2/4-------|---- x 1
|------------------------------------|---
|--3-----3---------------------------|-

Intro
|----------------------------------------------------------------|-
|----------------------------------------------------------------|--
|-------------------------------------------------0-----0--------|---
|-------------------------0-2-4---------------------4-----4-0----|---- x 1
|-----------------2-----3-----------------------3-----0----------|---
|--222222222--4-5---4-5----------222222222--4-5------------------|-

|------------------------------------|-
|------------------------------------|--
|--4-------5-----2-----4-------------|---
|--2-------3-----0-----2-------------|---- x 2
|------------------------------------|---
|-----2-2-----2-----2----------------|-


|-----0--------------0-----0/2-------|-
|-----------3-0----------------------|--
|------------------------------------|---
|----------------2------2--2/4-------|---- x 1
|------------------------------------|---
|--3-----3---------------------------|-


Clean part two different ways too play
|--------0-----------------0-------0---------0--------------------|-
|------------------------0-------0--------------------------------|--
|-----0---------2-------------------------0----------2------------|---
|-------------2-------2-------2--------------------2--------------|---- x 1
|--3--------0-----0--------------------3---------0-----0----2~~---|---
|-----------------------------------------------------------------|-

Also with clean part.

|------12~-14~-15~-14~-12~-------------------|-
|--12~---------------------12~~~-------------|--
|--------------------------------------------|---
|-----------------------------------1~~------|---- x 1
|--------------------------------------------|---
|--------------------------------------------|-

pretty cool riff
|-----------------------------------|-
|-----------------------3~--3~------|--
|--------2~~-2~---------2~--2~------|---
|--2~-2~-2~~-2~--5~-5~--0~--0~------|---- x 4
|--2~-2~-0~~-0~--5~-5~--------------|---
|--2~-2~---------5~-5~--------------|-


|-----------------------------------|-
|-----------------------------------|--
|-----------------------------------|---
|--------------------------0-2-4----|---- x 1
|-----------------2-----3-----------|---
|--222222222--4-5---4-5-------------|-

|-------------------------------------|-
|-------------------------------------|--
|--4-------5-----2--------------------|---
|--2-------3-----0---------4----------|---- x 1
|----------------------5---2----------|---
|-----2-2-----2-----2--5--------------|-

|-------------------0-----0/2-------|-
|-----1-----0-----------------------|--
|-------------0---------------------|---
|---------------2------2--2/4-------|---- x 1
|-----------------------------------|---
|--3-----3--------------------------|-

Another time
|-------------------------------------|-
|-------------------------------------|--
|--4-------5-----2--------------------|---
|--2-------3-----0---------4----------|---- x 1
|----------------------5---2----------|---
|-----2-2-----2-----2--5--------------|-


|-------------------0-----0/2-------|-
|-----1-----0-----------------------|--
|-------------0---------------------|---
|---------------2------2--2/4-------|---- x 1
|-----------------------------------|---
|--3-----3--------------------------|-


This riff again
|-----------------------------------|-
|-----------------------3~--3~------|--
|--------2~~-2~---------2~--2~------|---
|--2~-2~-2~~-2~--5~-5~--0~--0~------|---- x 4
|--2~-2~-0~~-0~--5~-5~--------------|---
|--2~-2~---------5~-5~--------------|-


Slow riff
|------------------------------|-
|------------------------------|--
|------------------------------|---
|----------2~----------0~------|---- x 2
|--3~--0~------3~--0~----------|---
|------------------------------|-

Other choice
|--------------------------------|-
|--1~-------------1~------3~-----|--
|-----2~------0~------2~---------|---
|---------4~---------------------|---- x 2
|--------------------------------|---
|--------------------------------|-


Clean solo

|--0-2-3-0--2h3p2-0--2~----0-7~--7-5-3-5-3--2~--------|
|------------------------0----------------------------|
|-----------------------------------------------------|
|-----------------------------------------------------|
|-----------------------------------------------------|
|-----------------------------------------------------|


Then this awesome riff

|--0---3-2---0-------0--------2p0---2--2-5-3-5-3-7-5-3---0-----|
|----0-----0---0-1-1---3-1-3------3--------------------3-------|
|--------------------------------------------------------------|
|--------------------------------------------------------------|
|--------------------------------------------------------------|
|--------------------------------------------------------------|

|--3p2-0-2--5-3-2-2--5-3-3-5-7--5-3-5-3-2-----|
|---------------------------------------------|
|---------------------------------------------|
|---------------------------------------------|
|---------------------------------------------|
|---------------------------------------------|


This riff again
|-----------------------------------|-
|-----------------------3~--3~------|--
|--------2~~-2~---------2~--2~------|---
|--2~-2~-2~~-2~--5~-5~--0~--0~------|---- x 2
|--2~-2~-0~~-0~--5~-5~--------------|---
|--2~-2~---------5~-5~--------------|-


Little different this time

|-----------------------0~--0~------|-
|-----------------------0~--0~------|--
|--------4~~-4~--2~-2~--------------|---
|--4~-4~-4~~-4~--2~-2~--2~--2~------|---- x 1
|--4~-4~-2~~-2~--0~-0~--------------|---
|--4~-4~----------------------------|-


This one too
|-----------------------------------|-
|-----------------------5~--5~------|--
|--------4~~-4~--2~-2~--4~--4~------|---
|--4~-4~-4~~-4~--2~-2~--2~--2~------|---- x 1
|--4~-4~-2~~-2~--0~-0~--------------|---
|--4~-4~----------------------------|-



Outro
|----------------------------------------------------------------|-
|----------------------------------------------------------------|--
|-------------------------------------------------0-----0--------|---
|-------------------------0-2-4---------------------4-----4-0----|---- x 2
|-----------------2-----3-----------------------3-----0----------|---
|--222222222--4-5---4-5----------222222222--4-5------------------|-


Ending
|-------------------|
|-------------------|
|-------------------|
|------------2~-----|
|-------------------|
|--22222222---------|



                      Thank you, I hope you enjoyed
                       This tab. Please Rate and
                          leave some comments
                                  (:
Suggest correction
Give kudos to tab author, rate the tab!
1 2 3 4 5
comments
print report bad tab
1 comment total.
0 reply
no1matt 10 May 28, 2010 04:49 PM

this is awesome :D
BUT i think its tuned to straight C? (either way it makes it easier to play xD)

guest
You may want to rate the tab now too:
select rating
Wanna post a correction for this tab? Suggest correction