Oops, an error
Loading. Please wait.

Egonomic Tab

version 1
version 1

Whole song

Interactive

911 views 3 this week
no commentswrite comment
1 2 3 4 5
3 more votes to show rating
add to favorites
launch autoscroll
font size
0
reset
how to read this tab
guitar tuner
Autoscroll
slow
fast
+/-
esc
set tempo
stop
Help us to improve Ultimate-Guitar.com Take our survey!
×
Author
In Flames
Egonomic
Reroute To Remain

TUNING: DROP A#

LEGEND:
. = Palm Mute
p = pull off
h = hammer on


NOTE: At some sections, such as Riff A, the tablature is that of one guitar, not both.


Riff A
(Here are the notes, play them to the song)
C |-------------------------------------------------------------------|
G |-------------------------------------------------------------------|
D#|-------------------------------------------------------------------|
A#|----7p5p0-7h8---8h10---7h8---5h7----7p5p0-7h8---8h10---7h8---5h7---|
F |--0-----------0------0-----0-----0------------0------0-----0-------|
A#|--0-----------0------0-----0-----0------------0------0-----0-------|
     .           .      .     .                  .      .     .
C |-------------------------------------------------------------------|
G |-------------------------------------------------------------------|
D#|-------------------------------------------------------------------|
A#|--2---2--2-2-2---2---2--2-2-2--------------------------------------|
F |--2---2--2-2-2---2---2--2-2-2--------------------------------------|
A#|--2---2--2-2-2---2---2--2-2-2--------------------------------------|
            . . .          . . . 
C |-------------------------------------------------------------------|
G |-------------------------------------------------------------------|
D#|-------------------------------------------------------------------|
A#|----7p5p0-7h8---8h10---7h8---5h7----7p5p0-7h8---8h10---7h8---5h7---|
F |--0-----------0------0-----0-----0------------0------0-----0-------|
A#|--0-----------0------0-----0-----0------------0------0-----0-------|
                 .      .     .                  .      .     .
Verses
(Here are the chords, play them to the song)
C |-------------------------------------------------------------------|
G |-------------------------------------------------------------------|
D#|-------------------------------------------------------------------|
A#|--0--0-0-0-0-0-3--0-0-0-0-0-0--7--8--8-8-8-8-8-7--8-8-8-8-8-8------|
F |--0--0-0-0-0-0-3--0-0-0-0-0-0--5--5--5-5-5-5-5-5--5-5-5-5-5-5------|
A#|--0--0-0-0-0-0-3--0-0-0-0-0-0--5--5--5-5-5-5-5-5--5-5-5-5-5-5------|
                                        . . . . .      . . . . .
C |-------------------------------------------------------------------|
G |-------------------------------------------------------------------|
D#|-------------------------------------------------------------------|
A#|--0--0-0-0-0-0-3--0-0-0-0-0-0--7--8--8-8-8-8-8-8--8-8-8-8-8-8-8----|
F |--0--0-0-0-0-0-3--0-0-0-0-0-0--5--5--5-5-5-5-5-8--8-8-8-8-8-8-8----|
A#|--0--0-0-0-0-0-3--0-0-0-0-0-0--5--5--5-5-5-5-5-8--8-8-8-8-8-8-8----|
                                        . . . . .   
Choruses
C |-------------------------------------------------------------------|
G |-------------------------------------------------------------------|
D#|----------------------------------------------------------3--------|
A#|--3--3-3-3-3-3-3-3-3-3-5-5-7-7-5--5-5-5-5-5-5-5-5-5-5-7-5-5-5------|
F |--3--3-3-3-3-3-3-3-3-3-3-3-3-3-3--3-3-3-3-3-3-3-3-3-3-3-3---3------|
A#|--3--3-3-3-3-3-3-3-3-3-3-3-3-3-------------------------------------|
        . . . . . .   . .   .   .      . . . . . .   . .   .   . 
C |-------------------------------------------------------------------|
G |-------------------------------------------------------------------|
D#|-------------------5--------------3--3-3-3-3-3-3-3-3-3-3-3-3-3-3-3-|
A#|--7--7-7-7-7-7-7-7-7-7-7-8-8-7-7--3--3-3-3-3-3-3-3-3-3-3-3-3-3-3-3-|
F |--5--5-5-5-5-5-5-5---5-5-5-5-5-5--1--1-1-1-1-1-1-1-1-1-1-1-1-1-1-1-|
A#|-------------------------------------------------------------------|
          . . . . . .   . .   .   .

Riff C (Play same riff w/o palm muting 2nd time)
C |-------------------------------------------------------------------|
G |-------------------------------------------------------------------|
D#|-------------------------------------------------------------------|
A#|-------------------------------------------------------------------|
F |---------------------------------3~--------------------------------|
A#|--0--0-3-5-7-0-3-5-8-0-7-0-3-5-0-----0-3-5-7-0-3-5-8-0-7-0-3-5-0-1~|
        . . . . . . . . . . . . . .     . . . . . . . . . . . . . .

CHORDS (Play the rhythm to the song)
C |-------------------------------------------------------------------|
G |-------------------------------------------------------------------|
D#|------9------9------11--7--9---------------------------------------|
A#|--10--9--10--9--12--11--5--7---------------------------------------|
F |--7---7--7---7--9---9---5--7---------------------------------------|
A#|--7------7------9-------5--7---------------------------------------|

Riff C
C |-------------------------------------------------------------------|
G |-------------------------------------------------------------------|
D#|-------------------------------------------------------------------|
A#|-------------------------------------------------------------------|
F |---------------------------------3~--------------------------------|
A#|--0--0-3-5-7-0-3-5-8-0-7-0-3-5-0-----0-3-5-7-0-3-5-8-0-7-0-3-5-0-1~|

C |-------------------------------------------------------------------|
G |-------------------------------------------------------------------|
D#|-------------------------------------------------------------------|
A#|--2---2--2-2-2---2---2--2-2-2--------------------------------------|
F |--2---2--2-2-2---2---2--2-2-2--------------------------------------|
A#|--2---2--2-2-2---2---2--2-2-2--------------------------------------|
            . . .          . . .
Suggest correction
Give kudos to tab author, rate the tab!
1 2 3 4 5
comments
print report bad tab
guest
You may want to rate the tab now too:
select rating
Wanna post a correction for this tab? Suggest correction