Oops, an error
Loading. Please wait.

Embody The Invisible Bass Tab

version 2
version 2

Whole song

906 views 1 this week
no commentswrite comment
1 2 3 4 5
3 more votes to show rating
add to favorites
launch autoscroll
font size
0
reset
guitar tuner
Autoscroll
slow
fast
+/-
esc
set tempo
stop
Help us to improve Ultimate-Guitar.com Take our survey!
×
Author
Embody the Invisible - In Flames

Tuning- C F Gb Eb

By Mark Murray

Main Riff
|-----------------------------------------------------------|
|-----------------------------------------------------------|
|------2--2--3--3--5p3---------0-0-0-7---7-0-3-5p3--5-5-----|
|--0-0-----------------3--3-3-------------------------------|

Verse 1
|-----------------------------------------------------------|
|-------------------------------------------------2-0-------|
|--------7----5-7---7---------7---------5-----2-5-----------|
|--0--0-----------0------0--0-------0-3---3-5---------------|

Main Riff

Verse 2
|-----------------------------------------------------------|
|-------------------------------------------------2-0-------|
|--------7----5-7---7---------7---------5-----2-5-----------|
|--0--0-----------0------0--0-------0-3---3-5---------------|

|-----------------------------------------------------------|
|-------------------------------------------------2-2-------|
|--------7----5-7---7---------7---------5-----2-5-----------|
|--0--0-----------0------0--0-------0-3---3-5---------------|

|--------------------------------------------------------------|
|----------------------------------------5---------------------|
|--2-2-2-----------2-2-2-0-3---5-7-7-7-0---7-5-7---5-7-------2-|
|--------3--3--3-------------3-------------------7-----3-3-3---|

|-----------------------------------------------------------|
|-----------------------------------------------------------|
|--2-2-2-----------2-2-2-0-3---0-3---2--0----3--3--5--5-5---|
|--------3--3--3-------------3------------3-----------------|

Pre-CHorus
|-----------------------------------------------|
|-----------------------------5555--------------|
|----------7777--77--00007777-----5555----------|
|-22222222--------------------------------------|

|-----------------------------------------------|
|-77-----------5555----------5555---------------|
|---007777-8888-----00007777-----5555-33333333--|
|-----------------------------------------------|

CHorus
|-----------------------------------------------|
|-----------------------------------------------|
|-----2222-55550000-----2222-33335555-----------|
|-0000--------------0000------------------------|

|-----------------------------------------------|
|-----------------------------------------------|
|-----2222-55550000----------22222222-----------|
|-0000--------------33333333--------------------|

Guitar Solo
|-------------------------------------------------------|
|---------------5--------------------------------2-0----|
|--------7----5----7---------7---------5-----2-5--------|
|--0--0----------0------0--0-------0-3---3-5------------|

|-------------------------------------------------------|
|---------------5--------------------------------2------|
|--------7----5----7---------7---------5-----2-5---2----|
|--0--0----------0------0--0-------0-3---3-5------------|

|-------------------------------------------------------------|
|-------------------------------------------------------------|
|--2-2-2-------------------------------------------------5-2--|
|---------3-3-3-5---5-5--2-2-2-3--3-3--0-0-0-2--2-2--3-3------|

|------------------------------------------------------------------------|
|------------------------------------------------------------------------|
|--2-2-2-----------------------------------------------------------------|
|---------3-3-3-5---5-5--2-2-2-3--3-3--0-0-0-2--2-2--3-3-5-2--2-2--3-3-5-|

Main Riff

Verse 2

Pre-CHorus

Chorus

Outro
|-------------------------------------------------------------|
|-------------------------------------------------------------|
|--2------------------------------------------------------2---|
|--------3-3-3-5---5-5--2-2-2-3--3-3--0-0-0-2--2-2--3-3-5-----|

|------------------------------------------------------------------------|
|------------------------------------------------------------------------|
|--2-2-2-----------------------------------------------------------------|
|---------3-3-3-5--5-5--2-2-2-3--3-3--0-0-0-2--2-2--3-3-5-2--2-2-3-3-5-7-|

|--------------------------------------------------------------|
|--------------------------------------------------------------|
|---7-7--3-3-3-5--5-5--2-2-2-3--3-3--0-0-0-2--2-2--3-3-5-2-----|
|--------------------------------------------------------------|

|------------------------------------|
|------------------------------------|
|---2-2--3-3-5-2--2-2--3-3-5-7-------|
|------------------------------------|

Theres finally and Embody tab that actually sounds like it. You can Figure out how many times
each part is played for youself. Please rate and enjoy. Mark
Suggest correction
Give kudos to tab author, rate the tab!
1 2 3 4 5
comments
print report bad tab
guest
You may want to rate the tab now too:
select rating
Wanna post a correction for this tab? Suggest correction