Oops, an error
Loading. Please wait.

Episode 666 Power Tab

version 2
version 2

Whole song

654 views 1 this week
1 commentread comment
1 2 3 4 5
excellent!
x 1
add to favorites
guitar tuner
Autoscroll
slow
fast
+/-
esc
set tempo
stop
Filesize
60 Kb
"Episode 666"
demo version
Play now

or get full version for Free

Get full version now!
To learn and play this song
in Tab Pro, start free trial
Start free trial

or get $10 off Welcome Bonus

Get welcome bonus
Get access to Tab Pro version of “Episode 666”!
Tab Pro is a premium guitar tab service, available on PC, Mac, iOS and Android
START FREE TRIAL
To download “Episode 666” Power Tab tab click button below
Please note that you must have Power Tab software installed on your
computer in order to view this file.
comments
We did not receive enough feedback on this tab! Please rate:
report bad tab
1 2 3 4 5
1 comment total.
0 reply
JaguarAG wrote on August 31 2012, 08:44 pm

Pretty much perfect! There are a few places where I hear it a little different--I think the last note of the first measure of the chorus is a quarter note tied into the second measure, like so (and ditto for the harmony):

E E E Q E E Q E E Q E E Q

|-----------------|-------------------|
|-----------2-4-2-|-(2)-0---------2-2-|
|-4-2-------------|-------4-4---5-----|
|-----5-5---------|-------------------|
|-----------------|-------------------|
|-----------------|-------------------|

And I'm sure there's a mute or palm mute that chops up the half notes in the second half of the breakown--something like this:

Q. E Q. Q. E E E E E

|----------------|-----------------|
|----------------|-----------------|
|----------------|-----------------|
|----------------|-9-----x-9-7-5-9-|
|-7-----x-10---x-|-----------------|
|----------------|-----------------|

Give it a listen and see if you agree.

Other than that, I think this is dead on. Nice work and five stars.

I want to post or [tab]
guest
You may want to rate the tab now too:
select rating
Please do not post tabs as comments. Select "correction" instead!