Oops, an error
Loading. Please wait.

Everything Counts Tab

version 1
version 1

Whole song

Interactive

1,975 views 3 this week
no commentswrite comment
1 2 3 4 5
accurate
x 1
add to favorites
launch autoscroll
font size
0
reset
how to read this tab
guitar tuner
Tab Pro tools
  • play this tab
  • loop segment
  • change instrument
  • show fretboard
  • metronome
Autoscroll
slow
fast
+/-
esc
set tempo
stop
IN FLAMES - EVERYTHING COUNTS
 From the Album WHORACLE           
 Copyright 1997 Nuclear Blast

Transcribed by: Jeremy Disten

For Questions, Comments, Newest Version, or Corrections contact
 Jeremy at: jdustpan@hotmail.com

Check Out Death Warp, With More Transcriptions On It:
 http://www.sorrowsend.com/DeathWarp/

..  - palm mute          /  - slide up to
 \  - slide down to      ~  - vibrato
 h  - hammer on          b  - bend
 p  - pull off            Suffixes for bend
                          ph - pinch harmonic
                           f - full bend    h - half bend
*  - see comment           r - release      t - tap bend
X  - percussion mute       ~ - vibrato bend
@  - slight palm mute     () - ghost note, sustained note

Tune Gtr to C

Riff A (Play 4 Times)
|-------------------|
|-------------------|
|-------------------|Gtrs I
|-------------------|  & II
|-2-----------------|
|-0-0-0-00-00-0-00--|


Riff B (Play 4 Times)
|---------------------------|
|---------------------------|
|---------------------------|Gtr I
|-2-x-x-x2-x2-2-------------|(Wah Pedal)
|---------------------------|
|---------------------------|
|                           |
|---------------------------|
|---------------------------|
|---------------------------|Gtr II
|-5-x-x-x5-x5-5-------------|(Wah Pedal)
|---------------------------|
|---------------------------|
|                           |
|---------------------------|
|---------------------------|
|---------------------------|Gtr III
|------------------7-7---5--|
|-2----------------5-5---3--|
|-0-0-0-00-00-0-00----------|


Riff C
|------------------------------------------------------------|
|------------------------------------------------------------|
|------------------------------------------------------------|Gtr I
|-------9-----------9------------9---------------------------|
|-------7-----------7------------7-----------9-----------9---|
|-000-0-------000-0--------000-0-------777-7-7-----777-7-7---|
|                                                            |
|------------------------------------------------------------|
|------------------------------------------------------------|
|------------------------------------------------------------|Gtr II
|-------9-----------9------------9---------------------------|
|-------10----------10-----------10----------5-----------5---|
|-000-0-------000-0--------000-0-------777-7-7-----777-7-7---|


|------------------------------------------------|
|------------------------------------------------|
|------------------------------------------------|Gtr I
|--------------------------------9-----------9---|
|-------7-----------7------------7-----------7---|
|-555-5-5-----555-5-5------000-0-------000-0-----|
|                                                |
|------------------------------------------------|
|------------------------------------------------|
|------------------------------------------------|Gtr II
|--------------------------------9------------9--|
|-------3-----------3------------10----------10--|
|-555-5-5-----555-5-5------000-0-------000-0-----|


Riff D
|-------------------------------------------------------------|
|-------------------------------------------------------------|
|-------------------------------------------------------------|Gtr I
|-4-----2-4-------2-2-2-4-5-2-2-2-4-----2-4-------2------(2)--|
|---2-2-----2-5-2-------------------2-2-----2-5-2-2------(2)--|
|---.-.-----.---.---.-.-----.---.---.-.-----.---.-0------(0)--|
|                                                             |
|-------------------------------------------------------------|
|-------------------------------------------------------------|
|-----------------------2-4-----------------------------------|Gtr II
|-----------------2-2-2-----2-5-2-----------------2-----------|
|-5-2-2-4-5-2-2-2-----------------5-2-2-4-5-2-2-2-2-----------|
|---.-.-----.---.---.-.-----.---.---.-.-----.---.-0--0-000-000|


Riff E (Play 2 Times)
|------------------------------------------------------------------|
|------------------------------------------------------------------|
|------------------------------------------------------------------|Gtr I
|-----------------------2222222222---------------------------------|
|-------5555555555333333----------------55555555553333330000000000-|
|-333333--------------------------333333---------------------------|
|                                                                  |
|------------------------------------------------------------------|
|------------------------------------------------------------------|
|-4444442222222222222244----------4444442222222222222244-----------|Gtr II
|-----------------------5555555555----------------------5555555555-|
|------------------------------------------------------------------|
|------------------------------------------------------------------|


Riff F
|------------------------------------------------------------|
|------------------------------------------------------------|
|------------------------------------------------------------|Gtr I
|------------------7-7-7-5-----------------------------------|
|-2----------------5-5-5-3--00000033333333555555556666666666-|
|-0-0-0-00-00-0-00-------------------------------------------|
|                                                            |
|------------------------------------------------------------|
|------------------------------------------------------------|
|---------------------------4444442222220022222244-----------|Gtr II
|------------------7-7-7-5------------------------5555555555-|
|-2----------------5-5-5-3-----------------------------------|
|-0-0-0-00-00-0-00-------------------------------------------|

Repeat Riff B (4 Times)
Repeat Riff C (1 Time)
Repeat Riff D (1 Time)
Repeat Riff E (2 Times)
Repeat Riff F (1 Time)

Drums & Bass Play Alone

Repeat 2nd Half of Riff F (1 Time)
Repeat Riff B (4 Times)

Riff G
|----------------------------------------15-14~----14-17"19"20"17"---|
|----------------------------10121315-15-----------------------------|
|-12fb+r-11----------------12----------------------------------------|Gtr
|-----------12-10h12p10-9--------------------------------------------| I
|--------------------------------------------------------------------|
|--------------------------------------------------------------------|
|                                                                    |
|--------------------------------1214----12--------------------------|
|-12hb+r-------------------121315-----12----15~----------------------|
|--------14-11--9h11p9-----------------------------------------------|Gtr
|----------------------12--------------------------------------------| II
|--------------------------------------------------------------------|
|--------------------------------------------------------------------|
|                                                                    |
|--------------------------------------------------------------------|
|--------------------------------------------------------------------|
|---------7------5------9--------------------7-----------5-----2-----|Gtr
|-5-------7------5------9-----------5--------7-----------5-----2-----| III
|-5-------5------3------7-----------5--------5-----------3-----0-----|
|-3---------------------------------3--------------------------------||----------------------------------------15-14~----14-17"19"20"22"---|
|----------------------------10121315-15-----------------------------|
|-12fb+r-11----------------12----------------------------------------|Gtr 
|-----------12-10h12p10-9--------------------------------------------| I
|--------------------------------------------------------------------|
|--------------------------------------------------------------------|
|                                                                    |
|--------------------------------1214----12------------14-15-17-17fb-|
|-12hb+r-------------------121315-----12----15~--15h17---------------|
|--------14-11--9h11p9-----------------------------------------------|Gtr
|----------------------12--------------------------------------------| II
|--------------------------------------------------------------------|
|--------------------------------------------------------------------|
|                                                                    |
|--------------------------------------------------------------------|
|--------------------------------------------------------------------|
|---------7------5------9--------------------7-----------5-----2-----|Gtr
|-5-------7------5------9-----------5--------7-----------5-----2-----| III
|-5-------5------3------7-----------5--------5-----------3-----0-----|
|-3---------------------------------3--------------------------------|

Repeat Riff E (2 Times)
Repeat Riff A (2 Times)

End Riff
|---------|
|---------|
|---------|Gtrs I
|-----9---|  & II
|-----7---|
|-0-0-0---|

Check Out Death Warp, With More Transcriptions On It:
 http://www.sorrowsend.com/DeathWarp/
comments
We did not receive enough feedback on this tab! Please rate:
print report bad tab
1 2 3 4 5
I want to post or [tab]
guest
You may want to rate the tab now too:
select rating
Please do not post tabs as comments. Select "correction" instead!