Oops, an error
Loading. Please wait.

Evil In A Closet Bass Tab

version 1
version 1

Whole song

Interactive

845 views 1 this week
no commentswrite comment
1 2 3 4 5
please rate
add to favorites
launch autoscroll
font size
0
reset
guitar tuner
Tab Pro tools
  • play this tab
  • loop segment
  • change instrument
  • show fretboard
  • metronome
×
Best way to learn
"Evil In A Closet"
Autoscroll
slow
fast
+/-
esc
set tempo
stop
Contributor
Difficulty
intermediate
Verse I (0:23)
D#|--------------------------------|--------------7---7-----0-------|
A#|7-------------------------------|------7------7------------------|
F#|------0---------3-----------5---|0-------------------------------|
A#|----------------------5---------|--------------------------------|
  |                                                                 | x1
D#|------2---------0---------------|--------------------------------|
A#|--------------------------------|7-----7-------------------------|
F#|0---*-----------------2-530---5-|------------3-2-----------------|
A#|----------------------------5---|----------------5---------------|
                           ^^^triplet
Bridge (0:46)
D#|--------------------------------|--------------------------------|   |---
A#|--------------------------------|--------------------------------| x2|---
F#|5--5--5-1--1--1-3--3--3-0--0--0-|1--1--1-------------------------|   |7--
A#|--------------------------------|--------3--3--3*2--2--2-5--5--5-|   |---

Verse II (1:12)
D#|--------------------------------|----------------7--9------------|
A#|7-----7-------------------------|----------------------9---9-10--|
F#|----0-------5-3-3---5-2---------|0---*-0-------------------------|
A#|--------------------------------|--------------------------------|
  |                                                                 | x1
D#|--------------------------------|--------------------------------|
A#|--------------2/7-----7---------|--------------------------------|
F#|----------------------------3---|0-----0---------5-------*-------|
A#|7---*-0---7---------------------|--------------------------------|

Verse III (1:34)
D#|--------------------------------|
A#|--------------------------------| x4
F#|3--3--5---5-5---6--6--8---8-----|
A#|--------------------------------|

Chorus (1:57)
D#|--------------------------------|--------------------------------|
A#|--------------------------------|--------------------------------| x2
F#|5-5555551-1111113-3333330-000000|1-111111------------------------|
A#|--------------------------------|--------3-3333332-2222225-555555|

Postchorus (2:20)
D#|----------------------------------------------------------------|
A#|----------------------------------------------------------------| x4
F#|3-5-5-----------3-5-5---3-5---3-3-3-3-------------------1-1---1-|
A#|--------0-0---0-------------------------0-0---0-5-5-5-----------|

Chorus (2:43)
D#|--------------------------------|--------------------------------|
A#|--------------------------------|--------------------------------| x4
F#|5-5555551-1111113-3333330-000000|1-111111------------------------|
A#|--------------------------------|--------3-3333332-2222225-555555|

Postchorus (3:29)
D#|----------------------------------------------------------------|
A#|----------------------------------------------------------------| x4
F#|3-5-5-----------3-5-5---3-5---3-3-3-3-------------------1-1---1-|
A#|--------0-0---0-------------------------0-0---0-5-5-5-----------|

comments
We did not receive enough feedback on this tab! Please rate:
print report bad tab
1 2 3 4 5
I want to post or [tab]
guest
You may want to rate the tab now too:
select rating
Please do not post tabs as comments. Select "correction" instead!