Oops, an error
Loading. Please wait.

Evil In A Closet Tab

version 2
version 2

Whole song

Interactive

21,330 views 15 this week
10 commentsread comments
1 2 3 4 5
excellent!
x 8
add to favorites
launch autoscroll
font size
0
reset
how to read this tab
guitar tuner
Tab Pro tools
  • play this tab
  • loop segment
  • change instrument
  • show fretboard
  • metronome
×
Best way to learn
"Evil In A Closet"
Autoscroll
slow
fast
+/-
esc
set tempo
stop
Contributor
Difficulty
novice
Band:  In Flames
Album: Soundtrack to your escape
Song:  Evil in a closet

Copyright (c) nuclear blast 2006
Version 1.0 - 10/07/06

Transcribed By: Lorenzo Veronese
Email:          lollo1290@alice.it


.  - palm mute           /  - slide up to
\  - slide down to       ~  - vibrato
h  - hammer on           b  - Bend
p  - pull off            Suffixes for bend
t  - tap                 f  - full bend    h - half bend
ph - pinched harmonic    q  - quarter bend t - tap bend
*  - see comment         ^  - Hold bend    r release bend
x  - Stuccatto           ~  - vibrato bend
,  - slight palm mute    () - ghost note, sustained note
"  - tremolo note        <> - Trill

Listen to the song for timing


-Riff 1. very low volume

|----------5-------------------------------------------------------|
|----------5-----------------3-------------------------------------|
|-------5----------------5-------4------4h5p4-----4----------------|
|----7----------------5----------5---5---------7-------------------|
|--0---------------------------------------------------------------|
|------------------------------------------------------------------|


|----------5-------------------------------------------------------|
|----------5-----------------3-------------------------------------|
|-------5----------------5-------4------4h5--5---------------------|
|----7----------------5----------5---5-----------------------------|
|--0---------------------------------------------------------------|
|------------------------------------------------------------------|

|----------5-------------------------------------------------------|
|----------5-----------------3-------------------------------------|
|-------5----------------5-------4------4h5p4-----4----------------|
|----7----------------5----------5---5---------7-------------------|
|--0---------------------------------------------------------------|
|------------------------------------------------------------------|


|-----------5------------------------------------------------------|
|-----------5------------------------------------------------------|
|--------5-----------------0---------------0-----------------------|
|-----7-----------------4-----4---------2------5-4-----------------|
|--0---------------//5-----------5----3------------5---------------|
|-----------------------------------------------------7------------|


-------------------------------------------------

-Bridge

 Guitar1 (with chorus)
|-------------1p0-------|--------1---------|----------------------------5-|
|---------3--------3----|--------3---------|-------6--5h6p5-------------5-|
|-----2---------------2-|----3-------3---3-|-----------------7---5------5-|
|-0---------------------|-3------------3---|-3/5--------------------7-----|
|-----------------------|------------------|------------------------------|
|-----------------------|------------------|------------------------------|
|Guitar2 (clean)                                                          |
|-------------------------------------------------------------------------|
|-------------------------------------------------------------------------|
|--7-----------------------3-------------------5--------------------2-----|
|--7-----------------------3-------------------5--------------------2-----|
|--5-----------------------1-------------------3--------------------0-----|
|-------------------------------------------------------------------------|

 Guitar1
|------------------|--------1---------|-------------------|---------------|
|----------3-------|-----------1---1--|----------3--------|---------3-----|
|-----3------3---3-|----2--------2----|------0------0---0-|-------0-------|
|-3-----3------3---|-3-----3----------|---2----2------2---|-----0---------|
|------------------|------------------|-------------------|---2-----------|
|------------------|------------------|-------------------|---------------|
|Guitar2 (clean)                                                          |
|-------------------------------------------------------------------------|
|-------------------------------------------------------------------------|
|-3-----------------------------------------------------------------------|
|-3------------------3--------------------2-------------------5-----------|
|-1------------------3--------------------2-------------------5-----------|
|--------------------1--------------------0-------------------3-----------|

-End:

Guitar1
|----------------------|
|---------8-7----------|
|------9---------------|
|----------------------|
|---7------------------|
|----------------------|
|Guitar2               |
|----------------------|----------------------|
|----------------------|----------------------|
|---------9-7----------|-----------17----17---|
|------9---------------|---19---19----19------|
|---7------------------|------0---------------|
|----------------------|----------------------|

----------------------------------------------

-Riff 2

|----------5----------------------------------------------------------|
|----------5----------------3-----------------------------------------|
|-------5---------------5-------4---------4h5--5----------------------|
|-------7------------5----------5------5------------------------------|
|----0----------------------------------------------------------------|
|---------------------------------------------------------------------|

|-----------5---------------------------------------------------------|
|-----------5-----------3---------------------------------------------|
|--------5---------5-------4----------4h5--5--------------------------|
|--------7---------5-------5--------5---------------------------------|
|----0----------------------------------------------------------------|
|---------------------------------------------------------------------|

|-----------5---------------------------------------------------------|
|-----------5-----------3---------------------------------------------|
|--------5---------5-------4----------4h5--5--------------------------|
|--------7---------5-------5--------5---------------------------------|
|----0----------------------------------------------------------------|
|---------------------------------------------------------------------|

|-----------5---------------------------------------------------------|
|-----------5---------------------------------------------------------|
|--------5----------------0--------------0----------------------------|
|--------7--------------4---4---------2------5-4----------------------|
|----0--------------//5-------5----3-------------5--------------------|
|--------------------------------------------------7------------------|

-------------------------------------------------


-Pre-Chorus:

 Guitar1 (lead)
|---------------------------------------------|
|-------------16~-------------------15~-------|
|---------------------------------------------|
|---------------------------------------------|
|---------------------------------------------|
|---------------------------------------------|
|                                             |
|Guitar 2 (clean)                             |
1°time only|                                  |
|----------|--5---------------------8---------|
|-X-X------|--6---------------------8---------|
|-X-X------|--7---------------------10--------|
|-X-X------|--7---------------------10--------|
|-X-X------|--5---------------------8---------|
|----------|----------------------------------|


|-------------------------------------|
|---15~-------~~------13~-------------|
|-------------------------------------|
|-------------------------------------|
|-------------------------------------|
|-------------------------------------|
|                                     |
|                                     |
|---8-----------------1---------------|
|---8-----------------1---------------|
|---9-----------------1---------------|
|---10----------------3---------------|
|---10----------------3---------------|
|---8-----------------1---------------|

----------------------------------------------------

-Chorus:

(very distorded sound)
|---------------------------------|
|---------------------------------|
|-7-7-7-7-7-7-7-7-----------------|
|-7-7-7-7-7-7-7-7-8-8-8-8-8-8-8-8-|
|-5-5-5-5-5-5-5-5-8-8-8-8-8-8-8-8-|
|-----------------6-6-6-6-6-6-6-6-|


|---------------------------------|
|---------------------------------|
|-5-5-5-5-5-5-5-5-----------------|
|-5-5-5-5-5-5-5-5-7-7-7-7-7-7-7-7-|
|-3-3-3-3-3-3-3-3-7-7-7-7-7-7-7-7-|
|-----------------5-5-5-5-5-5-5-5-|


|---------------------------------|
|---------------------------------|
|---------------------------------|
|-8-8-8-8-8-8-8-8-3-3-3-3-3-3-3-3-|
|-8-8-8-8-8-8-8-8-3-3-3-3-3-3-3-3-|
|-6-6-6-6-6-6-6-6-1-1-1-1-1-1-1-1-|


|---------------------------------|
|---------------------------------|
|---------------------------------|
|-2-2-2-2-2-2-2-2-5-5-5-5-5-5-5-5-|
|-2-2-2-2-2-2-2-2-5-5-5-5-5-5-5-5-|
|-0-0-0-0-0-0-0-0-3-3-3-3-3-3-3-3-|

---------------------------------------------------------


-Amazing Riff

(play this with a lot of angry and a heavy palm-mute)

Guitar1
|---------------------------------------------------------------------|
|---------------------------------------------------------------------|
|--9//10-10----------9/10-10/9-9/10-10/999----------------------------|
|--x--x--x-----------x-x--x--x-x-x---x-xxx----------------------------|
|--7//8--8-----------7/8--8/-7-7/8---8/777------------0h2-2p0-3/5-5-5-|
|-----------0-0---0--------------------------0-0---0--0---0---1/3-3-3-|
|Guitar2    . .   .                          . .   .                  |
|---------------------------------------------------------------------|
|---------------------------------------------------------------------|
|--5//7--7-----------5/7--7/5--5/7--7/555-----------------------------|
|--x--x--x-----------x-x--x-x--x-x--x-xxx-----------------------------|
|--3//5--5-----------3/5--5/3--3/5--5/333-------------0h2-2p0-3/5-5-5-|
|-----------0-0---0--------------------------0-0---0--0---0---1/3-3-3-|
            . .   .                          . .   .


-------------------------------------------------------------


-Solo:

|------------------------------------|
|---------13~------------13h15p13~---|
|---12h14-----------12/14------------|
|-15-------------15------------------|
|------------------------------------|
|------------------------------------|

|---------------------------------|
|---------------------------------|
|-12/15--15-14-12-----------------|
|----------------15—-14h15-14-----|
|-----------------------------15~-|
|---------------------------------|

|---------------------------------|
|---------------------------------|
|--------14--12------14~h15p14~---|
|----15---------15----------------|
|---------------------------------|
|---------------------------------|

|---------------------------------|
|---------13~------------13h15p13~|
|---12h14-----------12/14---------|
|-15-------------15---------------|
|---------------------------------|
|---------------------------------|

|----------------------------------|
|-15/18-17-15----------18~-18/20-17|
|------------17-15---17------------|
|------------------15--------------|
|----------------------------------|
|----------------------------------|

|----------------------------------|
|--------18--17--15--17--18—20~----|
|--15-17---------------------------|
|----------------------------------|
|----------------------------------|
|----------------------------------|

-----------------------------------------------------------------------------

SONG:

-Riff 1 x1 (very low volume)
-Riff 1 x1 (verse, with chorus and echo)
-Bridge x2
-End
-Riff 2 x1
-Pre-chorus x4
-Chorus x2
-Amazing riff x4
-Solo
-Chorus x2
-Amazing Riff x4
-End

That's all...
If you have any comment or question please send  an e-mail


PLEASE RATE

comments
print report bad tab
10 comments total. Showing first comments.
0 reply
MeAndMyRG wrote on August 23 2006, 02:02 pm

Good job on the tab pal! i think this one is better than the other one. I ahve only learn the intro so fa but soudns good

0 reply
KitaRox wrote on September 14 2006, 02:03 pm

Yes, it's definatly better. I heard it the same way you did! Great Tab!

0 reply
BurNW73 wrote on December 15 2006, 12:40 pm

I think you have some parts wrong on the solo, but not bad at all.

I want to post or [tab]
guest
You may want to rate the tab now too:
select rating
Please do not post tabs as comments. Select "correction" instead!