Oops, an error
Loading. Please wait.

Evil In A Closet Tab

version 3
version 3

Whole song

Interactive

2,036 views 3 this week
1 commentread comment
1 2 3 4 5
please rate
add to favorites
launch autoscroll
font size
0
reset
how to read this tab
guitar tuner
Tab Pro tools
  • play this tab
  • loop segment
  • change instrument
  • show fretboard
  • metronome
×
Best way to learn
"Evil In A Closet"
Autoscroll
slow
fast
+/-
esc
set tempo
stop
Contributor
Difficulty
novice
Artist: In Flames
Låt: Evil In A Closet
Album: Soundtrack To Your Escape

tuning: ebgdae


here you are guys and girls. evil in a closet by In Flames. unfortunealy i dont have the 
and the third verse but im working on it. enjoy
listen to the song for good rhytm.


Intro

riff 1
E|-------5-----------------------|
B|-------5-------3---------------|
G|-----5-------5---4-----4H5---4-|
D|---7-------5-----5---5-----5---|
A|-0-----------------------------|
E|-------------------------------|

riff 2
|-------5----------------------|
|-------5-------3--------------|
|-----5-------5---4-----4---5--|
|---7-------5-----5---5---5----|
|-0----------------------------|
|------------------------------|

riff 1
|-------5-----------------------|
|-------5-------3---------------|
|-----5-------5---4-----4H5---4-|
|---7-------5-----5---5-----5---|
|-0-----------------------------|
|-------------------------------|

riff 3
|---------------------------|
|---------------------5-----|
|------0------------5---5---|
|----4---4--------7-------7-|
|-/5-------5----7-----------|
|-------------5-------------|

mellanspel

riff 4
|-------1-0---------1---------------------------5--|
|---3-------3-------3-----------5---5-6-5-------5--|
|-----2-------2---3----3---3--------------7-5---5--|
|-0-------------3--------3---/5---5-----------7----|
|--------------------------------------------------|
|--------------------------------------------------|

|---------------------1-----------------------------------|
|-------3---------------1---1--------3--------------3-----|
|---3-----3---3---2-------2------0-----0---0------0---0---|
|-3---3-----3---3---3----------2---2-----2------0-------2-|
|---------------------------------------------2-----------|
|---------------------------------------------------------| spela 2x

riff 5
|-------------|
|-------------|
|-------7--7--|
|-------7--7--|
|----7--6--5--|
|-5-----------|

Vers 2

riff 6
|-----5-----------------------|
|-----5-------3---------------|
|---5-------5---4-----4H5---4-|
|---7-----5-----5---5-----5---|
|-0---------------------------|
|-----------------------------|

riff 7
|-----5---------------------|
|-----5-------3-------------|
|---5-------5---4-----4---5-|
|---7-----5-----5---5---5---|
|-0-------------------------|
|---------------------------|

riff 6
|-----5-----------------------|
|-----5-------3---------------|
|---5-------5---4-----4H5---4-|
|---7-----5-----5---5-----5---|
|-0---------------------------|
|-----------------------------|

riff 3
|---------------------------|
|---------------------5-----|
|------0------------5---5---|
|----4---4--------7-------7-|
|-/5-------5----7-----------|
|-------------5-------------|

refrain

riff 7 (dist)
|-------------------------------------------------------|
|-------------------------------------------------------|
|-77777777-33333333-55555555-22222222-33333333----------|
|-77777777-33333333-55555555-22222222-33333333-33333333-|
|-55555555-11111111-33333333-00000000-11111111-33333333-|
|----------------------------------------------11111111-|

|-------------------|
|-------------------|
|-------------------|
|-22222222-55555555-|
|-22222222-55555555-|
|-00000000-33333333-|spela 2x

h-hammer on
/slide up
comments
We did not receive enough feedback on this tab! Please rate:
print report bad tab
1 2 3 4 5
1 comment total.
0 reply
stumtk wrote on January 16 2007, 11:02 am

You sure thats the tuning? Finish it up and itll be good

I want to post or [tab]
guest
You may want to rate the tab now too:
select rating
Please do not post tabs as comments. Select "correction" instead!