Oops, an error
Loading. Please wait.

Fing Hostile Tab

202 views 1 this week
no commentswrite comment
1 2 3 4 5
please rate
add to favorites
launch autoscroll
font size
0
reset
how to read this tab
guitar tuner
Tab Pro tools
  • play this tab
  • loop segment
  • change instrument
  • show fretboard
  • metronome
Autoscroll
slow
fast
+/-
esc
set tempo
stop
Contributor
Difficulty
novice
This is a Pantera cover song. This off of their DVD, they do not play all of the song. R.I.P Dimebag

|--------------------------- |-------------------------------------------|
|--------------------------- |-------------------------------------------|
|--------------------------- |-------------------------------------------|
|--------------------------- |-------------------------------------------|
|-7--7--7-7-7--7--7--7-7-7-5 |-7--7--7-7-7--7--7--7--7-7-7-5-------------|
|-5--5--5-5-5--5--5--5-5-5-3 |-5--5--5-5-5--5--5--5--5-5-5-3-------------|

|----------------------------|-------------------------------|-----------|
|----------------------------|-------------------------------|-----------|
|----------------------------|-------------------------------|-----------|
|----------------------------|-------------------------------|-----------|
|-7--7--7-7-7--7--7--7-7-7-5-|-7--7--7-7-7--7--7--7--7-7-7-5-|-----------|
|-5--5--5-5-5--5--5--5-5-5-3-|-5--5--5-5-5--5--5--5--5-5-5-3-|-----------|

|---------|------------------|-------------------------------------------|
|---------|------------------|-------------------------------------------|
|---------|------------------|-------------------------------------------|
|-------5-|------------/7--7-|-------------------------------------------|
|-3-2-3-3-|-0-0-0-0-0-0----5-|-------------------------------------------|
|-5-4-1---|------------------|-------------------------------------------|

Chorus:
|----------------------------------------------|-------------------------|
|----------------------------------------------|-------------------------|
|----------------------------------------------|-------------------------|
|-7/5------------7/5------------7/5------------|-------------------------|
|-5/3-----5--x---5/3------5--x--5/3-----5--4-7-|-------------------------|
|-------0-3--x---------0--3--x-------0--3--6-5-|-------------------------|

|------------------------------|-----------------------------------------|
|------------------------------|-----------------------------------------|
|------------------------------|-----------------------------------------|
|----------------------------7-|5-----------7--5---------7--5------------|
|----------------------------5-|3-----5--x--5--3----5--x-5--3-----5--6-5-|
|-5-5-5-5-5-5-5-5-5-5-5-5-5----|---0--3--x--------0-3--x-------0--3--4-7-|

Bridge:
|-------------------------|----------------------------------------------|
|-------------------------|----------------------------------------------|
|-------------------------|----------------------------------------------|
|-------------------------|----------------------------------------------|
|-2--2--2--2--5--------5--|----------------------------------------------|
|-0--0--0--0--3--0--0--3--|----------------------------------------------|

Then they go into Behind Space.
comments
We did not receive enough feedback on this tab! Please rate:
print report bad tab
1 2 3 4 5
I want to post or [tab]
guest
You may want to rate the tab now too:
select rating
Please do not post tabs as comments. Select "correction" instead!