Oops, an error
Loading. Please wait.

Free Fall Tab

version 1
version 1

Whole song

Interactive

10,475 views 6 this week
6 commentsread comments
1 2 3 4 5
accurate
x 4
add to favorites
launch autoscroll
font size
0
reset
how to read this tab
guitar tuner
Autoscroll
slow
fast
+/-
esc
set tempo
stop
Help us to improve Ultimate-Guitar.com Take our survey!
×
Author
Difficulty
intermediate
Great song, im gunna tab it best i can.

Standard Tuning - E A D G B E

Legend
x - Mute
. - Palm mute
h - hammer-on
p - pull-off
/ - slide up

Intro
Not sure if this is played on guitar.
But I tabbed it anyway.


E|13----16----15----18-16-|13----13-16-15----18-16-|
B|13-13----13----16-------|13-13----------16-------|
G|------------------------|------------------------|
D|------------------------|------------------------|
A|------------------------|------------------------|
E|------------------------|------------------------|

E|13----16----15----18-16-|11----11-15-11----11-15|
B|13-13----13----16-------|13-13----------13------|
G|------------------------|-----------------------|
D|------------------------|-----------------------|
A|------------------------|-----------------------|
E|------------------------|-----------------------|

  F           Eb     F           C
E|---------------------------------------|
B|---------------------------------------|
G|10-10-10-10-8-8-8-8-10-10-10-10-5-5-5-5|
D|10-10-10-10-8-8-8-8-10-10-10-10-5-5-5-5|
A|8--8--8--8--6-6-6-6-8--8--8--8--3-3-3-3|
E|---------------------------------------|

  C#      Eb      C       Eb
E|-------------------------------|
B|-------------------------------|
G|6-6-6-6-8-8-8-8-5-5-5-5-8-8-8-8|
D|6-6-6-6-8-8-8-8-5-5-5-5-8-8-8-8|
A|4-4-4-4-6-6-6-6-3-3-3-3-6-6-6-6|
E|-------------------------------|

Verse 1

  F              C# C
E|-------------------|
B|-------------------|
G|---------------6--5|
D|3-3------------6--5|
A|3-3------------4--3|
E|1-1----------------| Repeat 3 times
  . .

  F              Eb
E|--------------------|
B|--------------------|
G|---------------8-8-8|
D|3-3------------8-8-8|
A|3-3------------6-6-8|
E|1-3-----------------|
  . .

  F                 C# C
E|-----------------------|
B|-----------------------|
G|-----------------------|
D|3-3-3-3-3-3-3-3-3-6--5-|
A|3-3-3-3-3-3-3-3-3-6--5-|
E|1-1-1-1-1-1-1-1-1-4--3-| Repeat twice
  . . . . . . . . .

  F                 Eb
E|-----------------------|
B|-----------------------|
G|------------------8-8-8|
D|3-3-3-3-3-3-3-3-3-8-8-8|
A|3-3-3-3-3-3-3-3-3-6-6-8|
E|1-1-1-1-1-1-1-1-1------|
  . . . . . . . . .

E|---------------------------------|-----------------------------|
B|---------------------------------|-----------------------------|
G|------8--------------------------|------8----------------------|
D|3-x-x-8-3-x-x-3-3-x-x-x-x-5/8--6-|3-x-x-8-3-x-x-x-x-8--8-6--6-6|
A|3-x-x-6-3-x-x-3-3-x-x-x-x-5/8--6-|3-x-x-6-3-x-x-x-x-8--8-6--6-6|
E|3-x-x---3-x-x-1-3-x-x-x-x-3/6--4-|3-x-x---3-x-x-x-x-6--6-4--4-4|

Repeat the whole thing again, then have a 4 bar pause.

Chorus

 F           Eb     F           C
E|---------------------------------------|
B|---------------------------------------|
G|10-10-10-10-8-8-8-8-10-10-10-10-5-5-5-5|
D|10-10-10-10-8-8-8-8-10-10-10-10-5-5-5-5|
A|8--8--8--8--6-6-6-6-8--8--8--8--3-3-3-3|
E|---------------------------------------|

  C#      Eb      C       Eb
E|-------------------------------|
B|-------------------------------|
G|6-6-6-6-8-8-8-8-5-5-5-5-8-8-8-8|
D|6-6-6-6-8-8-8-8-5-5-5-5-8-8-8-8|
A|4-4-4-4-6-6-6-6-3-3-3-3-6-6-6-6|
E|-------------------------------| Repeat twice

Verse 2

Starts with a 4 bar pause.

  F              C# C
E|-------------------|
B|-------------------|
G|---------------6--5|
D|3-3------------6--5|
A|3-3------------4--3|
E|1-1----------------| Repeat 3 times
  . .

  F              Eb
E|--------------------|
B|--------------------|
G|---------------8-8-8|
D|3-3------------8-8-8|
A|3-3------------6-6-8|
E|1-3-----------------|
  . .

  F                 C# C
E|-----------------------|
B|-----------------------|
G|-----------------------|
D|3-3-3-3-3-3-3-3-3-6--5-|
A|3-3-3-3-3-3-3-3-3-6--5-|
E|1-1-1-1-1-1-1-1-1-4--3-| Repeat twice
  . . . . . . . . .

  F                 Eb
E|-----------------------|
B|-----------------------|
G|------------------8-8-8|
D|3-3-3-3-3-3-3-3-3-8-8-8|
A|3-3-3-3-3-3-3-3-3-6-6-8|
E|1-1-1-1-1-1-1-1-1------|
  . . . . . . . . .

Chorus

 F           Eb     F           C
E|---------------------------------------|
B|---------------------------------------|
G|10-10-10-10-8-8-8-8-10-10-10-10-5-5-5-5|
D|10-10-10-10-8-8-8-8-10-10-10-10-5-5-5-5|
A|8--8--8--8--6-6-6-6-8--8--8--8--3-3-3-3|
E|---------------------------------------|

  C#      Eb      C       Eb
E|-------------------------------|
B|-------------------------------|
G|6-6-6-6-8-8-8-8-5-5-5-5-8-8-8-8|
D|6-6-6-6-8-8-8-8-5-5-5-5-8-8-8-8|
A|4-4-4-4-6-6-6-6-3-3-3-3-6-6-6-6|
E|-------------------------------|

 F           Eb     F           C
E|---------------------------------------|
B|---------------------------------------|
G|10-10-10-10-8-8-8-8-10-10-10-10-5-5-5-5|
D|10-10-10-10-8-8-8-8-10-10-10-10-5-5-5-5|
A|8--8--8--8--6-6-6-6-8--8--8--8--3-3-3-3|
E|---------------------------------------|

  C#      Eb      C       Eb
E|-------------------------------|
B|-------------------------------|
G|6-6-6-6-8-8-8-8-8-8-8-8-8-8-8-8|
D|6-6-6-6-8-8-8-8-8-8-8-8-8-8-8-8|
A|4-4-4-4-6-6-6-6-6-6-6-6-6-6-6-6|
E|-------------------------------|

Solo
Not quite sure about this, but heres what i think it is.

E|---------------------------------------------|
B|---------------------------------------------|
G|10h12p10-10h12p10-11h13p11-11h13p11-11h13p11-|
D|---------------------------------------------|
A|---------------------------------------------|
E|---------------------------------------------|

E|---------------------------------------------|
B|---------------------------------------------|
G|13h15p13-13h15p13-11h13p11-11h13p11-11h13p11-|
D|---------------------------------------------|
A|---------------------------------------------|
E|---------------------------------------------|

E|---------------------------------------------|
B|---------------------------------------------|
G|10h12p10-10h12p10-11h13p11-11h13p11-11h13p11-|
D|---------------------------------------------|
A|---------------------------------------------|
E|---------------------------------------------|

E|-----------------|
B|11----11-13-11---|
G|---13----------13|
D|-----------------|
A|-----------------|
E|-----------------|

E|---------------------------------------------|
B|---------------------------------------------|
G|10h12p10-10h12p10-11h13p11-11h13p11-11h13p11-|
D|---------------------------------------------|
A|---------------------------------------------|
E|---------------------------------------------|

E|---------------------------------------------|
B|---------------------------------------------|
G|13h15p13-13h15p13-11h13p11-11h13p11-11h13p11-|
D|---------------------------------------------|
A|---------------------------------------------|
E|---------------------------------------------|

E|---------------------------------------------|
B|---------------------------------------------|
G|10h12p10-10h12p10-11h13p11-11h13p11-11h13p11-|
D|---------------------------------------------|
A|---------------------------------------------|
E|---------------------------------------------|

E|-----------------|
B|11-13-11-13-11---|
G|---------------13|
D|-----------------|
A|-----------------|
E|-----------------|

Pre-Chorus

E|13----16----15----18-16-|13----13-16-15----18-16-|
B|13-13----13----16-------|13-13----------16-------|
G|------------------------|------------------------|
D|------------------------|------------------------|
A|------------------------|------------------------|
E|------------------------|------------------------|

E|13----16----15----18-16-|11----11-15-11----11-15|
B|13-13----13----16-------|13-13----------13------|
G|------------------------|-----------------------|
D|------------------------|-----------------------|
A|------------------------|-----------------------|
E|------------------------|-----------------------|

Chorus

 F           Eb     F           C
E|---------------------------------------|
B|---------------------------------------|
G|10-10-10-10-8-8-8-8-10-10-10-10-5-5-5-5|
D|10-10-10-10-8-8-8-8-10-10-10-10-5-5-5-5|
A|8--8--8--8--6-6-6-6-8--8--8--8--3-3-3-3|
E|---------------------------------------|

  C#      Eb      C       Eb
E|-------------------------------|
B|-------------------------------|
G|6-6-6-6-8-8-8-8-5-5-5-5-8-8-8-8|
D|6-6-6-6-8-8-8-8-5-5-5-5-8-8-8-8|
A|4-4-4-4-6-6-6-6-3-3-3-3-6-6-6-6|
E|-------------------------------| Repeat 4 times.

Coda/Outro

 F           Eb     F           C
E|---------------------------------------|
B|---------------------------------------|
G|10-10-10-10-8-8-8-8-10-10-10-10-5-5-5-5|
D|10-10-10-10-8-8-8-8-10-10-10-10-5-5-5-5|
A|8--8--8--8--6-6-6-6-8--8--8--8--3-3-3-3|
E|---------------------------------------|

  C#      Eb      C       Eb
E|-------------------------------|
B|-------------------------------|
G|6-6-6-6-8-8-8-8-5-5-5-5-8-8-8-8|
D|6-6-6-6-8-8-8-8-5-5-5-5-8-8-8-8|
A|4-4-4-4-6-6-6-6-3-3-3-3-6-6-6-6|
E|-------------------------------| 
Repeat this 4 times, but play softer each time.

Well, I think this is a fairly accurate tab.
Post any criticism or praise in comments.
Suggest correction
comments
print report bad tab
6 comments total. Showing first comments.
-1 reply
King-of-Rock-16 10 wrote on December 8 2006, 01:04 am

hey man your tab sucks. first of all free fall is played in standard c not e. Also your missing heaps. if your gonna tab sumthing take the time!!

0 reply
King-of-Rock-16 10 wrote on December 8 2006, 01:05 am

Where to start.......

0 reply
dann_blood 268 wrote on December 8 2006, 03:53 am

You sure youre listening to the right song or reading this right? As far as i know this is atleast 90% correct.

guest
You may want to rate the tab now too:
select rating
Please do not post tabs as comments. Select "correction" instead!