Oops, an error
Loading. Please wait.

Im The Highway Tab

version 1
version 1

Whole song

Interactive

10,938 views 15 this week
1 commentread comment
1 2 3 4 5
x 3
add to favorites
launch autoscroll
font size
0
reset
how to read this tab
guitar tuner
Autoscroll
slow
fast
+/-
esc
set tempo
stop
Help us to improve Ultimate-Guitar.com Take our survey!
×
Author
Difficulty
Tuning
intermediate
A# F A# D# G C
C-----------------------------------------------------------------------|
G-----------------------------------------------------------------------|
D#-10-----10-----10---0-0-7-0-7h9p7--7-----7-----7-------5---5h7p5------|
A#----8-8----8-8----8------------------0-0---0-0---0--------------------|
F----------------------------------------------------7-7---7------------|
A#----------------------------------------------------------------------|

C------------------------------------------------------------------------|
G------------------------------------------------------------------------|
D#-10-----10-----10---0-0-7-0-7h9p7--10-10-7-7---------------------------|
A#----8-8----8-8----8--------------------------7-7-5-5-----5-5-7-7-10-10-|
F------------------------------------------------------8-8---------------|
A#-----------------------------------------------------------------------|



C----------------------------------------------------------------------|
G----------------------------------------------------------10-10-------|
D#---------------------------------------------7-7-7-7-----------10-10-|
A#-----7-7-7-7---------7-7-7-7---------7-7-------------8-8-------------|
F--5-5---------5-5-5-5---------5-5-5-5-----8-8-------------------------|
A#---------------------------------------------------------------------|



C----------------------------------------------------------------------|
G----------------------------------------------------------------------|
D#---------------------------------------------7-7-7-7-----7-7---------|
A#-----7-7-7-7---------7-7-7-7---------7-7-------------8-8-----7-7-----|
F--5-5---------5-5-5-5---------5-5-5-5-----8-8-------------------------|
A#---------------------------------------------------------------------|


C-----------------------------------------------------------------------|
G-----------------------------------------------------------------------|
D#----------------------------------------------------------------------|
A#----------------------------------------------------------------------|
F--5~-------7h8p7--5~----7-8-----7-8-7---5~-------7h8p7--5~-------------|
A#-5~-------7h8p7--5~--------5-5---------5~-------7h8p7--5~----8-8--8-8-|


C-----------------------------------------------------------------------|
G-----------------------------------------------------------------------|
D#----------------------------------------------------------------------|
A#----------------------------------------------------------------------|
F--12-12-12-12-12-12-12-12-12-12-12-12-12-12-12-12-12-12-12-12-12-12-12-|
A#-12-12-12-12-12-12-12-12-12-12-12-12-12-12-12-12-12-12-12-12-12-12-12-|



C-------------------------------------------------------------|
G-------------------------------------------------------------|
D#------------------------------------------------------------|
A#------------------------------------------------------------|
F--12-12-12-12-12-12-12-12-12-5-5-5-5-5-5-5-5-5-5-5-5-5-5-5-5-|
A#-12-12-12-12-12-12-12-12-12-5-5-5-5-5-5-5-5-5-5-5-5-5-5-5-5-|



C------------------------------------------|
G------------------------------------------|
D#-----------------------------------------|
A#-----------------------------------------|
F--3-3-3-3-3-3-3-3-10-10-10-10-10-10-10-10-|
A#-3-3-3-3-3-3-3-3-10-10-10-10-10-10-10-10-|



C-----------------------------------------------------------------------|
G-----------------------------------------------------------------------|
D#-10-----10-----10---0-0-7-0-7h9p7--7-----7-----7-------5---5h7p5------|
A#----8-8----8-8----8------------------0-0---0-0---0--------------------|
F----------------------------------------------------7-7---7------------|
A#----------------------------------------------------------------------|

C------------------------------------------------------------------------|
G------------------------------------------------------------------------|
D#-10-----10-----10---0-0-7-0-7h9p7--10-10-7-7---------------------------|
A#----8-8----8-8----8--------------------------7-7-5-5-----5-5-7-7-10-10-|
F------------------------------------------------------8-8---------------|
A#-----------------------------------------------------------------------|


C----------------------------------------------------------------------|
G----------------------------------------------------------10-10-------|
D#---------------------------------------------7-7-7-7-----------10-10-|
A#-----7-7-7-7---------7-7-7-7---------7-7-------------8-8-------------|
F--5-5---------5-5-5-5---------5-5-5-5-----8-8-------------------------|
A#---------------------------------------------------------------------|



C----------------------------------------------------------------------|
G----------------------------------------------------------------------|
D#---------------------------------------------7-7-7-7-----7-7---------|
A#-----7-7-7-7---------7-7-7-7---------7-7-------------8-8-----7-7-----|
F--5-5---------5-5-5-5---------5-5-5-5-----8-8-------------------------|
A#---------------------------------------------------------------------|


C-----------------------------------------------------------------------|
G-----------------------------------------------------------------------|
D#----------------------------------------------------------------------|
A#----------------------------------------------------------------------|
F--5~-------7h8p7--5~----7-8-----7-8-7---5~-------7h8p7--5~-------------|
A#-5~-------7h8p7--5~--------5-5---------5~-------7h8p7--5~----8-8--8-8-|


C-----------------------------------------------------------------------|
G-----------------------------------------------------------------------|
D#----------------------------------------------------------------------|
A#----------------------------------------------------------------------|
F--12-12-12-12-12-12-12-12-12-12-12-12-12-12-12-12-12-12-12-12-12-12-12-|
A#-12-12-12-12-12-12-12-12-12-12-12-12-12-12-12-12-12-12-12-12-12-12-12-|



C-------------------------------------------------------------|
G-------------------------------------------------------------|
D#------------------------------------------------------------|
A#------------------------------------------------------------|
F--12-12-12-12-12-12-12-12-12-5-5-5-5-5-5-5-5-5-5-5-5-5-5-5-5-|
A#-12-12-12-12-12-12-12-12-12-5-5-5-5-5-5-5-5-5-5-5-5-5-5-5-5-|



C------------------------------------------|
G------------------------------------------|
D#-----------------------------------------|
A#-----------------------------------------|
F--3-3-3-3-3-3-3-3-10-10-10-10-10-10-10-10-|
A#-3-3-3-3-3-3-3-3-10-10-10-10-10-10-10-10-|




C----------------------------------------------------------------------|
G----------------------------------------------------------------------|
D#-----------------------------------first ending:---------------------|
A#--------------------------------------------------------------10-----|
F------------------------------------------------------------------8-7-|
A#-0-2-3-0-5-0-7-0-8-7-0-3-0-3-5-7----0-2-3-0-5-0-7-0-8-7-0-3-0--------|

2nd ending:

C---------------------------------------------------------------------|
G---------------------------------------------------------------------|
D#--------------------------------------------------------------------|
A#--------------------------------------------------------------------|
F--0-3-3-3-3-3-5-5-5-5-5-5-8-8-8-8------------------------------------|
A#-0-3-3-3-3-3-5-5-5-5-5-5-8-8-8-8------------------------------------|


I'm not sure about the solo:

C--------------------------------------------------------------------|
G-----------------15---17-18-17-15--15-17-18-22----------------------|
D#-14------15---------------------17---------------------------------|
A#---12-12---12-12--12-----------------------------------------------|
F--------------------------------------------------------------------|
A#-------------------------------------------------------------------|


C--------------------------------------------------------------------|
G----------------15---18-17-15---------------------------------------|
D#-14-----15------------------17-15-14-------------------------------|
A#---12-12--12-12--12-----------------17-15-13-----------------------|
F--------------------------------------------------------------------|
A#-------------------------------------------------------------------|



C--------------------------------------------------------------------|
G-----------------15---17-18-17-15--15-17-18-22----------------------|
D#-14------15---------------------17---------------------------------|
A#---12-12---12-12--12-----------------------------------------------|
F--------------------------------------------------------------------|
A#-------------------------------------------------------------------|


C----------------------------------------------------------------------|
G--18-----20-----18-----20-----18--------------------------------------|
D#---19-15--19-15--19-15--19-15----------------------------------------|
A#-----------------------------------12-10-12--14-15-14-12-14---15-14--|
F----------------------------------------------------------------------|
A#---------------------------------------------------------------------|


C------------------------------------------------------------------------|
G------------------------------------------------------------------------|
D#-----------------------------------------------------------------------|
A#-12-10-12--14-15-19-15-14-19-15-14-12-10--12-10-12--14-15-14-12-14--15-|
F------------------------------------------------------------------------|
A#-----------------------------------------------------------------------|


C-----------------------------------------------------------------------|
G-----------------------------------------------------------------------|
D#----------------------------------------------------------------------|
A#-14---15---19---15------14---15---12----------------------------------|
F-----------------------------------------------------------------------|
A#----------------------------------------------------------------------|


C-----------------------------------------------------------------------|
G-----------------------------------------------------------------------|
D#-10-----10-----10---0-0-7-0-7h9p7--7-----7-----7-------5---5h7p5------|
A#----8-8----8-8----8------------------0-0---0-0---0--------------------|
F----------------------------------------------------7-7---7------------|
A#----------------------------------------------------------------------|

C------------------------------------------------------------------------|
G------------------------------------------------------------------------|
D#-10-----10-----10---0-0-7-0-7h9p7--10-10-7-7---------------------------|
A#----8-8----8-8----8--------------------------7-7-5-5-----5-5-7-7-10-10-|
F------------------------------------------------------8-8---------------|
A#-----------------------------------------------------------------------|



C-----------------------------------------------------------------------|
G-----------------------------------------------------------------------|
D#----------------------------------------------------------------------|
A#----------------------------------------------------------------------|
F--12-12-12-12-12-12-12-12-12-12-12-12-12-12-12-12-12-12-12-12-12-12-12-|
A#-12-12-12-12-12-12-12-12-12-12-12-12-12-12-12-12-12-12-12-12-12-12-12-|



C-------------------------------------------------------------|
G-------------------------------------------------------------|
D#------------------------------------------------------------|
A#------------------------------------------------------------|
F--12-12-12-12-12-12-12-12-12-5-5-5-5-5-5-5-5-5-5-5-5-5-5-5-5-|
A#-12-12-12-12-12-12-12-12-12-5-5-5-5-5-5-5-5-5-5-5-5-5-5-5-5-|



C------------------------------------------|
G------------------------------------------|
D#-----------------------------------------|
A#-----------------------------------------|
F--3-3-3-3-3-3-3-3-10-10-10-10-10-10-10-10-|
A#-3-3-3-3-3-3-3-3-10-10-10-10-10-10-10-10-|



C-----------------------------------------------------------------------|
G-----------------------------------------------------------------------|
D#-10-----10-----10---0-0-7-0-7h9p7--7-----7-----7-------5---5h7p5------|
A#----8-8----8-8----8------------------0-0---0-0---0--------------------|
F----------------------------------------------------7-7---7------------|
A#----------------------------------------------------------------------|


C------------------------------------------------------------------------|
G------------------------------------------------------------------------|
D#-10-----10-----10---0-0-7-0-7h9p7--10-10-7-7---------------------------|
A#----8-8----8-8----8--------------------------7-7-5-5-----5-5-7-7-10-10-|
F------------------------------------------------------8-8---------------|
A#-----------------------------------------------------------------------|



C----------------------------------------------------------------------------|
G----------------------------------------------------------------------------|
D#---------------------------------------------------------------------------|
A#--------------------------------------------------------------10---10------|
F-----------------------------------------------------------------8-7--8-7-8-|
A#-0-2-3-0-5-0-7-0-8-7-0-3-0-3-5-7----0-2-3-0-5-0-7-0-8-7-0-3-0--------------|
Suggest correction
Give kudos to tab author, rate the tab!
1 2 3 4 5
comments
print report bad tab
1 comment total.
0 reply
mercanaree 10 Mar 17, 2014 12:52 PM

It looks accurate but if you could break it up into sections that would make things a ton easier. Also there's a lead line in the chorus, I don't know what it is though.

guest
You may want to rate the tab now too:
select rating
Wanna post a correction for this tab? Suggest correction