Oops, an error
Loading. Please wait.

In Plain View Tab

version 1
version 1

Whole song

Interactive

3,011 views 3 this week
no commentswrite comment
1 2 3 4 5
x 3
add to favorites
launch autoscroll
font size
0
reset
how to read this tab
guitar tuner
×
Best way to learn
"In Plain View"
Autoscroll
slow
fast
+/-
esc
set tempo
stop
Author
Tuning
A# F A# D# G C
IN FLAMES

IN PLAIN VIEW

TABBED BY andherembrace

A#-F-A#-D#-G-C





W/WAH/FILTER
----------------------------------------------------------|
----------------------------------------------------------|
----------------------------------------------------------|
-0-3-0-7-0-8-0-0-3-0-7-0-8-0-0-3-0-7-0-8-0-0-3-0-7-0-8-0--|
----------------------------------------------------------|
----------------------------------------------------------|


L
----------------------------------------------------------|
----------------------------------------------------------|
----------------------------------------------------------|
-0-3-0-7-0-8-0-0-3-0-7-0-8-0-0-3-0-7-0-8-0-0-3-0-7-0-8-0--|
----------------------------------------------------------|
----------------------------------------------------------|

R
----------------------------------------------------------|
----------------------------------------------------------|
----------------------------------------------------------|
-0-7-0-10-0-12-0-0-7-0-10-0-12-0-0-7-0-10-0-12-0-0-7-0-10-|
----------------------------------------------------------|
----------------------------------------------------------|




0:31

---------------------------------------------------------|
---------------------------------------------------------|
---------------------------------------------------------|
---------------------------------------------------------|
---------------------------------------------------------|
-0-3-0-7-0-8-0-0-3-0-7-0-8-0-0-3-0-7-0-8-0-0-3-0-7-0-8-0-|

---------------------------------------------------------|
---------------------------------------------------------|
---------------------------------------------------------|
---------------------------------------------------------|
---------------------------------------------------------|
-0-3-0-7-0-8-0-0-3-0-7-0-8-0-0-3-0-7-0-8-0-0-3-0-7-0-8---|



L
------------------------___----------------------------|
----------------)()(---/   \---------------------------|
-7~----6----9--9------7---9-7-6--7~---6--9--7----------|
----------------------------------------------7--------|
------------------------------------------------8-5~---|
-------------------------------------------------------|

R
-------------------------___------------------------------|
-----------------)()(---/   \-----------------------------|
-10~---9---12--12-----10--12-10-9--10~--9--12-10----------|
-------------------------------------------------12-------|
----------------------------------------------------12-8~-|
----------------------------------------------------------|

RYTHM
-------------------------------------------------------------|
-------------------------------------------------------------|
-------------------------------------------------------------|
-------------------------------------------------------------|
-8----7-----0--------------------------8----7--------0-0-0-0-|
-8----7-----0----------2-3-2-0-7-8-7-5-8----7--/12~~-0-0-0-0-|






0:48
PM'D THROUGHOUT
-------------------------------------------------------------|
-------------------------------------------------------------|
-------------------------------------------------------------|
-0-3-0-7-0-8-0-0-3-0-7-0-8-0-0-3-0-3-0-7-0-8-0-0-3-0-7-0-8-0-|
-------------------------------------------------------------|
-------------------------------------------------------------|

---------------------------------------------------------------------|
---------------------------------------------------------------------|
---------------------------------------------------------------------|
-0-3-0-3-0-7-0-8-0-0-3-0-7-0-8-0-0-3-0-3-0-7-0-8-0-0-3-0-7-0-8-0-0-0-|
---------------------------------------------------------------------|
---------------------------------------------------------------------|


W/IPS SET TO +1 OCTAVE
------------------------------------------------------------------|
------------------------------------------------------------------|
------------------------------------------------------------------|
------------------------------------------------------------------|
-0-3-0-7-0-8-0-0-3-0-7-0-8-0-0-3-0-3-0-7-0-8-0-0-3-0-7-0-8-0-0-3--|
------------------------------------------------------------------|

---------------------------------------------------------------------|
---------------------------------------------------------------------|
---------------------------------------------------------------------|
-0-3-0-3-0-7-0-8-0-0-3-0-7-0-8-0-0-3-0-3-0-7-0-8-0-0-3-0-7-0-8-0-0-0-|
---------------------------------------------------------------------|
---------------------------------------------------------------------|




1:05

---------------------------------------------------------|
---------------------------------------------------------|
---------------------------------------------------------|
---------------------------------------------------------|
---------------------------------------------------------|
-0-3-0-7-0-8-0-0-3-0-7-0-8-0-0-3-0-7-0-8-0-0-3-0-7-0-8-0-|

---------------------------------------------------------|
---------------------------------------------------------|
---------------------------------------------------------|
---------------------------------------------------------|
---------------------------------------------------------|
-0-3-0-7-0-8-0-0-3-0-7-0-8-0-0-3-0-7-0-8-0-0-3-0-7-0-8---|




PM'D THOUGHOUT W/WAH FILTER
L
-------------------------------------------------------------------------|
-------------------------------------------------------------------------|
-------------------------------------------------------------------------|
-------------------------------------------------------------------------|
-6-6-6-6-6-6-6-6-8-8-8-8-8-8-8-8-5-5-5-5-5-5-5-5-10-10-10-10-10-10-10-10-|
-------------------------------------------------------------------------|

R
----------------------------------------------------------------------------|
----------------------------------------------------------------------------|
----------------------------------------------------------------------------|
131313-121212-----131313-121212-1010-121212-131313-1515-131313-121212-1010--|
-------------1010-----------------------------------------------------------|
----------------------------------------------------------------------------|


L
---------------------------------------------------------------------------------|
---------------------------------------------------------------------------------|
---------------------------------------------------------------------------------|
---------------------------------------------------------------------------------|
-6-6-6-6-6-6-6-6-8-8-8-8-8-8-8-8-10-10-10-10-10-10-10-10-10-10-10-10-10-10-10-10-|
---------------------------------------------------------------------------------|

R
-------------------------------------------------------------------|
---------------------------------------------------8-8-8-8-8-8-8-8-|
------------------------------------------------7-7----------------|
-131313-121212-8-8-101010-8-8-8-7-7-5-5-5-5-5-5--------------------|
-------------------------------------------------------------------|
-------------------------------------------------------------------|





1:21

L
-------------------------------------------------------------------------|
---------------------------------------------------------------------8---|
-------------------------------------------------------------------7-----|
-/13--12~----/13--12~-10--12-13-/15-13--12-10-/13-12~-8-10-8-7-5~--------|
----------10-------------------------------------------------------------|
-------------------------------------------------------------------------|

R
-/11-10~---/11-10~-8--10--11-/13--11--10--8-/11-10-----------------------|
---------8------------------------------------------11-/13-11-10-8----8--|
--------------------------------------------------------------------7----|
-------------------------------------------------------------------------|
-------------------------------------------------------------------------|
-------------------------------------------------------------------------|

RYTHM
-------------------------------------------------------------------------|
-------------------------------------------------------------------------|
-------------------------------------------------------------------------|
-1--------3--------0---------------------1--------3-------5--------------|
-1--------3--------0---------------------1--------3-------5--------------|
-1--------3--------0---------------------1--------3-------5--------------|




L
-------------------------------------------------------------------------|
--------------------------------------------------------------------8----|
------------------------------------------------------------------7------|
-/13--12~----/13--12~-10--12-13-/15-13-12-10-/13-12~-8-10-8-7-5~---------|
----------10-------------------------------------------------------------|
-------------------------------------------------------------------------|

R
-/11-10~---/11-10~-8--10--11-/13--11--10--8-/11-10-----------------------|
---------8------------------------------------------11-/13-11-10-8--10-11|
-------------------------------------------------------------------------|
-------------------------------------------------------------------------|
-------------------------------------------------------------------------|
-------------------------------------------------------------------------|

RYTHM
-------------------------------------------------------------------------|
-------------------------------------------------------------------------|
-------------------------------------------------------------------------|
-1--------3--------0---------------------1--------3-------5--------------|
-1--------3--------0---------------------1--------3-------5--------------|
-1--------3--------0---------------------1--------3-------5--------------|






1:40


-------------------------------------------------------------|
-------------------------------------------------------------|
-------------------------------------------------------------|
-0-3-0-7-0-8-0-0-3-0-7-0-8-0-0-3-0-3-0-7-0-8-0-0-3-0-7-0-8-0-|
-------------------------------------------------------------|
-------------------------------------------------------------|

---------------------------------------------------------------------|
---------------------------------------------------------------------|
---------------------------------------------------------------------|
-0-3-0-3-0-7-0-8-0-0-3-0-7-0-8-0-0-3-0-3-0-7-0-8-0-0-3-0-7-0-8-0-0-0-|
---------------------------------------------------------------------|
---------------------------------------------------------------------|

W/IPS SET TO +1 OCTAVE
------------------------------------------------------------------|
------------------------------------------------------------------|
------------------------------------------------------------------|
------------------------------------------------------------------|
-0-3-0-7-0-8-0-0-3-0-7-0-8-0-0-3-0-3-0-7-0-8-0-0-3-0-7-0-8-0-0-3--|
------------------------------------------------------------------|

----------------------------------------------------------------|
----------------------------------------------------------------|
----------------------------------------------------------------|
-0-3-0-3-0-7-0-8-0-0-3-0-7-0-8-0-0-3-0-3-0-7-0-8-0-0-3-0-7-0-8--|
----------------------------------------------------------------|
----------------------------------------------------------------|




1:57

L
-------------------------------------------------------------------------|
---------------------------------------------------------------------8---|
-------------------------------------------------------------------7-----|
-/13--12~----/13--12~-10--12-13-/15-13--12-10-/13-12~-8-10-8-7-5~--------|
----------10-------------------------------------------------------------|
-------------------------------------------------------------------------|

R
-/11-10~---/11-10~-8--10--11-/13--11--10--8-/11-10-----------------------|
---------8------------------------------------------11-/13-11-10-8----8--|
--------------------------------------------------------------------7----|
-------------------------------------------------------------------------|
-------------------------------------------------------------------------|
-------------------------------------------------------------------------|

RYTHM
-------------------------------------------------------------------------|
-------------------------------------------------------------------------|
-------------------------------------------------------------------------|
-1--------3--------0---------------------1--------3-------5--------------|
-1--------3--------0---------------------1--------3-------5--------------|
-1--------3--------0---------------------1--------3-------5--------------|




L
-------------------------------------------------------------------------|
--------------------------------------------------------------------8----|
------------------------------------------------------------------7------|
-/13--12~----/13--12~-10--12-13-/15-13--12-10-/13-12~-8-10-8-7-5~--------|
----------10-------------------------------------------------------------|
-------------------------------------------------------------------------|

R
-/11-10~---/11-10~-8--10--11-/13--11--10--8-/11-10-----------------------|
---------8------------------------------------------11-/13-11-10-8--10-11|
-------------------------------------------------------------------------|
-------------------------------------------------------------------------|
-------------------------------------------------------------------------|
-------------------------------------------------------------------------|

RYTHM
-------------------------------------------------------------------------|
-------------------------------------------------------------------------|
-------------------------------------------------------------------------|
-1--------3--------0---------------------1--------3-------5--------------|
-1--------3--------0---------------------1--------3-------5--------------|
-1--------3--------0---------------------1--------3-------5--------------|





2:14


---------------------------------------------------------------------------|
---------------------------------------------------------------------------|
--------9---10----------9---10---------------9---10----------9---10--------|
-7-10-7---7----7-7-10-7---7----7-7-10-7-10-7---7----7-7-10-7---7----7-7-10-|
---------------------------------------------------------------------------|
---------------------------------------------------------------------------|
 *  * *   *    * *  * *   *    * *  * *  * *   *    * *  * *   *    * *  *



L
-----------------------------------------------------------------|
-----------------------------------------------------------)(----|
---7---9---10-----7---9---10-------7-7-7-7-7-10-----/14--12---10-|
-0---0---0----0-0---0---0----0-0-0-------------------------------|
-----------------------------------------------------------------|
-----------------------------------------------------------------|
 *   *   *    * *   *   *    * * * * * * * *    |
R
-----------------------------------------------------------------------|
-----------------------------------------------------------------)(----|
---10---12---14-----10---12---14-------10-10-10-10-10-14---/10--9---7--|
-0----0----0----0-0----0----0----0-0-0---------------------------------|
-----------------------------------------------------------------------|
-----------------------------------------------------------------------|
 *    *    *    * *    *    *    * * *  *  *  *  *  *   |
RYTHM
------------------------------------------------------|
-3----------------------------------------------------|
-2----------------------------------------------------|
-0----------------------------------------------------|
-0----------------------------------------------------|
-0--------------------------------------0-0-0-0-0-3---|
                                        * * * * *



2:23

1
---------------------------------------------------------------------------|
---------------------------------------------------------------------------|
--------9---10----------9---10---------------9---10----------9---10--------|
-7-10-7---7----7-7-10-7---7----7-7-10-7-10-7---7----7-7-10-7---7----7-7-10-|
---------------------------------------------------------------------------|
---------------------------------------------------------------------------|
 *  * *   *    * *  * *   *    * *  * *  * *   *    * *  * *   *    * *  *

RYTHM
--------------------------------------------------------------------|
--------------------------------------------------------------------|
------------------9------------------------------9------------------|
------------------7------------------------------7------------------|
------------------7------------------------------7------------------|
-7-7-7------7--7----------------7-7-7------7--7---------------------|
 * * *      *  *                * * *      *  *


1
----------------------------------------------------------------------|
----------------------------------------------------------------------|
---7---9---10-----7---9---10---------7---9---10-----7---9---10--------|
-0---0---0----0-0---0---0----0-0-0-0---0---0----0-0---0---0----0-0-0--|
----------------------------------------------------------------------|
----------------------------------------------------------------------|
 *   *   *    * *   *   *    * * * *   *   *    * *   *   *    * * *  
2
------------------------------------------------------------------------|
------------------------------------------------------------------------|
------------------------------------10---12---14-----10---12---14-------|
----------------------------------0----0----0----0-0----0----0----0-0-0-|
------------------------------------------------------------------------|
------------------------------------------------------------------------|
                                  *    *    *    * *    *    *    * * *
RYTHM
------------------------------------------------------------------------|
------------------------------------------------------------------------|
--------------------14-----------------------------14-------------------|
--------------------12-----------------------------12-------------------|
--------------------12-----------------------------12-------------------|
-0-0-0--------0--0---------------0-0-0--------0--0----------------------|
 * * *        *  *               * * *        *  *



2:32

1
----------------------------------------------------------------------|
----------------------------------------------------------------------|
---7---9---10-----7---9---10---------7---9---10-----7---9---10--------|
-8---8---8----8-8---8---8----8-8-8-8---8---8----8-8---8---8----8-8-8--|
----------------------------------------------------------------------|
----------------------------------------------------------------------|
 *   *   *    * *   *   *    * * * *   *   *    * *   *   *    * * *
2
-------------------------------------------------------------------------|
-----------------------------------------------10---------------10-------|
-------------------------------------10---12----------10---12------------|
-----------------------------------8----8----8----8-8----8----8---8-8-8--|
-------------------------------------------------------------------------|
-------------------------------------------------------------------------|
                                   *    *    *    * *    *    *   * * * 
RYTHM
-------------------------------------------------------------------------|
-------------------------------------------------------------------------|
------------------10------------------------------10---------------------|
------------------8--------------------------------8---------------------|
------------------8--------------------------------8---------------------|
-8-8-8-------8--8-----------------8-8-8-------8--8-----------------------|
 * * *       *  *                 * * *       *  *


1
-------------------------------------------------------------------------------|
-------------------------------------------------------------------------------|
---7---9---10-----7---9---10----------9---10---12-----9---10---12---9/10-10~~--|
-0---0---0----0-0---0---0----0-0-0-10---0----0----0-0---0----0----0------------|
-------------------------------------------------------------------------------|
-------------------------------------------------------------------------------|
 *   *   *    * *   *   *    * * *  *   *   *    * *   *   *      *  
2
--------------------------------------------------------------------------------|
-------------10---------------10------------------------------------------------|
---10---12----------10---12---------------12--14--15-----12--14--15---12/14-14~~|
-0----0----0----0-0----0----0----0-0-0-10---10--10--10-10--10--10--10-----------|
--------------------------------------------------------------------------------|
--------------------------------------------------------------------------------|
 *    *    *    * *    *    *    * * *  *    *   *   *  *   *   *   *
RYTHM
--------------------------------------------------------------------------------|
--------------------------------------------------------------------------------|
--------------------14-----------------------------------------12---------------|
--------------------12-----------------------------------------10---------------|
--------------------12-----------------------------------------10---------------|
-0-0-0---------0--0--------------------10-10-10----------10-10------------------|
 * * *         *  *                     *  *  *           *  *





2:40

---------------------------------------------__---------|
--------------------------------------------/  \--------|
---------------10----------------------10-12-14-12-10---|
----------------8-----------------------8-10-12-10--8---|
----------------8-----------------------8-10/12\10--8---|
-8-8-8-8---8-8-----------8-8-8-8---8-8------------------|
 * * * *   * *           * * * *   * *


-----------------------------------------------|
-----------------------------------------------|
---------------14----------------------10--5---|
---------------12----------------------X---X---|
---------------12---------------------/8---3---|
-0-0-0-0---0-0----------0-0-0-0---0-0----------|
 * * * *   * *          * * * *   * *


--------------------__---------------------------__--------|
-------------------/  \-------------------------/  \-------|
--------------10-12-14-12-10---------------10-12-14-12-10--|
---------------8-10-12-10--8----------------8-10-12-10--8--|
---------------8-10/12\10--8----------------8-10/12\10--8--|
-8-8-8-8---8-8----------------8-8-8-8---8-8----------------|
 * * * *   * *                * * * *   * *


-------------------------------------------------|
-------------------------------------------------|
---------------14--109----------------10---5-----|
---------------12--X-X-----------------X---X-----|
---------------12-/8\7----------------/8---3-----|
-0-0-0-0---0-0----------0-0-0-0---0-0------------|
 * * * *   * *          * * * *   * *




2:58

-------------------------------------------------------------|
-------------------------------------------------------------|
-------------------------------------------------------------|
-0-3-0-7-0-8-0-0-3-0-7-0-8-0-0-3-0-3-0-7-0-8-0-0-3-0-7-0-8-0-|
-------------------------------------------------------------|
-------------------------------------------------------------|

---------------------------------------------------------------------|
---------------------------------------------------------------------|
---------------------------------------------------------------------|
-0-3-0-3-0-7-0-8-0-0-3-0-7-0-8-0-0-3-0-3-0-7-0-8-0-0-3-0-7-0-8-0-0-0-|
---------------------------------------------------------------------|
---------------------------------------------------------------------|

W/IPS SET TO +1 OCTAVE
------------------------------------------------------------------|
------------------------------------------------------------------|
------------------------------------------------------------------|
------------------------------------------------------------------|
-0-3-0-7-0-8-0-0-3-0-7-0-8-0-0-3-0-3-0-7-0-8-0-0-3-0-7-0-8-0-0-3--|
------------------------------------------------------------------|


---------------------------------------------------------------------|
---------------------------------------------------------------------|
---------------------------------------------------------------------|
-0-3-0-3-0-7-0-8-0-0-3-0-7-0-8-0-0-3-0-3-0-7-0-8-0-0-3-0-7-0-8-0-0-0-|
---------------------------------------------------------------------|
---------------------------------------------------------------------|



3:16

---------------------------------------------------------|
---------------------------------------------------------|
---------------------------------------------------------|
---------------------------------------------------------|
---------------------------------------------------------|
-0-3-0-7-0-8-0-0-3-0-7-0-8-0-0-3-0-7-0-8-0-0-3-0-7-0-8-0-|

---------------------------------------------------------|
---------------------------------------------------------|
---------------------------------------------------------|
---------------------------------------------------------|
---------------------------------------------------------|
-0-3-0-7-0-8-0-0-3-0-7-0-8-0-0-3-0-7-0-8-0-0-3-0-7-------|




3:23

L
-------------------------------------------------------------------------|
---------------------------------------------------------------------8---|
-------------------------------------------------------------------7-----|
-/13--12~----/13--12~-10--12-13-/15-13--12-10-/13-12~-8-10-8-7-5~--------|
----------10-------------------------------------------------------------|
-------------------------------------------------------------------------|

R
-/11-10~---/11-10~-8--10--11-/13--11--10--8-/11-10-----------------------|
---------8------------------------------------------11-/13-11-10-8----8--|
--------------------------------------------------------------------7----|
-------------------------------------------------------------------------|
-------------------------------------------------------------------------|
-------------------------------------------------------------------------|

RYTHM
-------------------------------------------------------------------------|
-------------------------------------------------------------------------|
-------------------------------------------------------------------------|
-1--------3--------0---------------------1--------3-------5--------------|
-1--------3--------0---------------------1--------3-------5--------------|
-1--------3--------0---------------------1--------3-------5--------------|




L
-------------------------------------------------------------------------|
--------------------------------------------------------------------8----|
------------------------------------------------------------------7------|
-/13--12~----/13--12~-10--12-13-/15-13--12-10-/13-12~-8-10-8-7-5~--------|
----------10-------------------------------------------------------------|
-------------------------------------------------------------------------|

R
-/11-10~---/11-10~-8--10--11-/13--11--10--8-/11-10-----------------------|
---------8------------------------------------------11-/13-11-10-8--10-11|
-------------------------------------------------------------------------|
-------------------------------------------------------------------------|
-------------------------------------------------------------------------|
-------------------------------------------------------------------------|

RYTHM
-------------------------------------------------------------------------|
-------------------------------------------------------------------------|
-------------------------------------------------------------------------|
-1--------3--------0---------------------1--------3-------5--------------|
-1--------3--------0---------------------1--------3-------5--------------|
-1--------3--------0---------------------1--------3-------5--------------|






L
-------------------------------------------------------------------------|
---------------------------------------------------------------------8---|
-------------------------------------------------------------------7-----|
-/13--12~----/13--12~-10--12-13-/15-13--12-10-/13-12~-8-10-8-7-5~--------|
----------10-------------------------------------------------------------|
-------------------------------------------------------------------------|

R
-/11-10~---/11-10~-8--10--11-/13--11--10--8-/11-10-----------------------|
---------8------------------------------------------11-/13-11-10-8----8--|
--------------------------------------------------------------------7----|
-------------------------------------------------------------------------|
-------------------------------------------------------------------------|
-------------------------------------------------------------------------|

RYTHM
-------------------------------------------------------------------------|
-------------------------------------------------------------------------|
-------------------------------------------------------------------------|
-1--------3--------0---------------------1--------3-------5--------------|
-1--------3--------0---------------------1--------3-------5--------------|
-1--------3--------0---------------------1--------3-------5--------------|




L
-------------------------------------------------------------------------|
--------------------------------------------------------------------8----|
------------------------------------------------------------------7------|
-/13--12~----/13--12~-10--12-13-/15-13--12-10-/13-12~-8-10-8-7-5~--------|
----------10-------------------------------------------------------------|
-------------------------------------------------------------------------|

R
-/11-10~---/11-10~-8--10--11-/13--11--10--8-/11-10-----------------------|
---------8------------------------------------------11-/13-11-10-8--10-11|
-------------------------------------------------------------------------|
-------------------------------------------------------------------------|
-------------------------------------------------------------------------|
-------------------------------------------------------------------------|

RYTHM
-------------------------------------------------------------------------|
-------------------------------------------------------------------------|
-------------------------------------------------------------------------|
-1--------3--------0---------------------1--------3-------5--------------|
-1--------3--------0---------------------1--------3-------5--------------|
-1--------3--------0---------------------1--------3-------5--------------|




------------------------------------------------------------|
------------------------------------------------------------|
------------------------------------------------------------|
----------------------------------------14--12-10--0--------|
-----------3------------3------------3--12--10--8--0--------|
-0-0-0-0-0-3--0-0-0-0-0-3--0-0-0-0-0-3-------------0--------|
 * * * * * *  * * * * * *  * * * * * *
Suggest correction
Give kudos to tab author, rate the tab!
1 2 3 4 5
comments
print report bad tab
guest
You may want to rate the tab now too:
select rating
Wanna post a correction for this tab? Suggest correction