Oops, an error
Loading. Please wait.

Jotun Tab

version 1
version 1

Whole song

17,561 views 12 this week
5 commentsread comments
1 2 3 4 5
worth learning
x 9
add to favorites
launch autoscroll
font size
0
reset
how to read this tab
guitar tuner
Autoscroll
slow
fast
+/-
esc
set tempo
stop
Help us to improve Ultimate-Guitar.com Take our survey!
×
______  _____ _________
      |/     \    |    |      ||\     |
      ||     |    |    |      || \    |
      ||     |    |    |      ||  \   |
      ||     |    |    |      ||   \  |
      /|     |    |    |      ||    \ |
|____/ \_____/    |     \____/ |     \|
_______________________________________by:_In_Flames_
Transcribed by Dennis Brandeby.

   Note:
 This is my first transcription but I think it's darn good anyway.
 I couldn't tab everything but what I tabbed sounds correct.
Well then, here ye go.

 Riff A.
e|---------------------------------------------------|
B|-------------/8-6----------------------------------|
G|------5-/7-5------8-7-5----------------------------|
D|----5-------------------686-5---5h6-3h5-1h3-1p0----|
A|--3------------------------------------------------|
E|---------------------------------------------------|
 |
e|--------------------------------------------------------------|
B|------------/8-6-/11-9-11-9119-8--8h9-6h8-4h6-3~--4-3---------|
G|-----5-/7-5------------------------------------------3-1-/3-5-|
D|---5----------------------------------------------------------|
A|-3------------------------------------------------------------|
E|--------------------------------------------------------------|
 |
e|---------------------|
B|--4p3----------------|
G|------3--------------|
D|--------3-1----------|
A|----------3----------|
E|---------------------|

  Riff 2. guitar 1.
e|-------------------------------------3-4p3--------------|
B|--------4-3---------/6-5-3-------4-6-------6-3-4-343----|
G|--5p0-5-----5-4p0-4--------5p0-5---------------------4--|
D|--------------------------------------------------------|
A|--------------------------------------------------------|
E|--------------------------------------------------------|

 guitar 2.play twice.
e|----------------------------------|
B|----------------------------------|
G|------------------------5-7/8-7---|
D|--55555555---------6--8-3-5/6-5---|
A|--3333333355555555-3--6-----------|
E|----------33333333----------------|

  riff 3.guitar 1&2.
e|----------------------------------|
B|----------------------------------|
G|-------------------5-7/8-7--------|
D|--555---------5--8-3-5/6-5--------|
A|--333---555---3--6----------------|
E|--------333-----------------------|

 Now play riff 2 twice, then go on with riff 4.

  riff 4(chorus).
e|------------------------------------------|
B|------------------------------------------|
G|--------------------------------5---------|
D|---------------------5------5h6---5-------|
A|--6--5------5-6---------8-8---------------|
E|--------6h8-----8-------------------------|

  riff 5.play twice.
e|-----------------------------------------------------|
B|-----------------------------------------------------|
G|-----------------------------------------------------|
D|--5-5---3-5--------------5-5---3-5--------3----------|
A|--3-3---1-3--6p5---3p1---3-3---1-3--3-5-6---6-5-6----|
E|-----------------5-----1-----------------------------|

  riff 6.
e|--------------------------------------------------------------|
B|----------------------7-9-10-9--------------------------------|
G|----------------/10-8-------------------------/10-8----8------|
D|----------8-7-8-------------------------8-7-8-------11---8----|
A|--6-6-6h9-----------------------6-6-6h9-----------------------|
E|--------------------------------------------------------------|
 |                                                              |
e|--------------------------------------------------------------|
B|----------/8-6-8---6--8----------/8-6-8---/11-13--------------|
G|--8-7------------8-------8-7------------8---------------------|
D|------8-5--------------------8-5------------------------------|
A|--------------------------------------------------------------|
E|--------------------------------------------------------------|

 play riff 2 twice, then play riff 4 four times.
 after that comes something I don't know,
 but after that comes riff 4 again to be played twice.
 the rest you have to figure out for your self.
 I don't know how to play it.
 Have a good n' nice day!
Suggest correction
comments
print report bad tab
5 comments total. Showing first comments.
0 reply
StuartR 40 wrote on January 21 2005, 12:00 am

Wrong tuning but looks like the right notes, IF use straight C.

0 reply
Murk 10 wrote on November 14 2005, 11:53 am

Why is it that soooooo many people think everything is in standard??? Use your brain man!!!!

0 reply
Murk 10 wrote on November 14 2005, 11:54 am

guest
You may want to rate the tab now too:
select rating
Please do not post tabs as comments. Select "correction" instead!