Oops, an error
Loading. Please wait.

Liberation Tab

version 1
version 1

Whole song

Interactive

3,440 views 3 this week
2 commentsread comments
1 2 3 4 5
please rate
add to favorites
launch autoscroll
font size
0
reset
how to read this tab
guitar tuner
Autoscroll
slow
fast
+/-
esc
set tempo
stop
Help us to improve Ultimate-Guitar.com Take our survey!
×
Contributor
Difficulty
Tuning
novice
D# G# C# F# A# D#
Tab By Per Christian.

No Solo yet,
if you want it on this page, Email it to Per_cristian91@hotmail.com
There's a lot of dub-guitars in this one,
use your own ears if you wanna cover it all.

Tuning: Eb(half step down).

Intro.
Either set your delay, or play each note 2 times,
this can be played two ways, which ever you prefer.

eb|-------------|           eb|-------------|
Bb|-------------| <-This    Bb|-------------|
Gb|-------------|   way     Gb|------3------|
Db|-4----7--4---|   Or      Db|-4------4----|
Ab|---4---------|   like    Ab|---4---------|
Eb|-----------2-|   That->  Eb|----------2--|



eb|------------------|------------------|
Bb|------------------|------------------|
Gb|------------------|------------------|
Db|-6--9-----8--/11--|-6--/9---/11-10-9-|
Ab|--6---------9-----|--6---------------|
Eb|------------------|------------------|


Chorus.
Listen good (cba to write all the strokes).
eb|---------------------------------------------------------------|
Bb|---------------------------------------------------------------|
Gb|-4-------------------------------------------------------------|
Db|-4----6-----4----2----4----2----4----6----2----4---------------|
Ab|-2----6-----4----2----4----2----4----6----2----4---------------|
Eb|------4-----2----0----2----0----2----4----0----2---------------|


Bridge.                     Last time
eb|-------------------| |-----------------|
Bb|-4-4--7-7--9---12--| |-4-4---7-7---9---|
Gb|-5-5--6-6--8---11--| |-5-5---6-6---8---|
Db|-2-2--4-4--6---9---| |-2-2---4-4---6---|
Ab|-2-2--4-4--6---9---| |-2-2---4-4---6---|
Eb|-------------------| |-----------------|



Rythm guitar(solo).
Listen good (cba to write all the strokes).

eb|-----------------------------------------------------------|
Bb|-----------------------------------------------------------|
Gb|-6----------4------------------4--------------4------------|
Db|-6----2-----4-----7-------2----4----6----2----4----7----6--|
Ab|-4----2-----2-----7-------2----2----6----2----2----7----6--|
Eb|------0-----2-----5-------0----2----4----0----2----5----4--|



The outro is quite easy to do by ear (it's not exactly alike the intro),
give it a go :)
comments
We did not receive enough feedback on this tab! Please rate:
print report bad tab
1 2 3 4 5
2 comments total.
0 reply
tjfaith 12 wrote on February 17 2014, 05:35 am, edited at 05:41 am

I have a correction to the one part of the song because it was bugging me to no end. Also my first correction/tab part ever. I know if you listen carefully it really only does sound like 3 notes being played, but adding that last one kind of fits I feel. Just me.

Instead of this

0 reply
tjfaith 12 wrote on February 17 2014, 05:36 am

I have a correction to the one part of the song because it was bugging me to no end. Also my first correction/tab part ever.

Instead of this


eb|------------------|------------------|
Bb|------------------|------------------|
Gb|------------------|------------------|
Db|-6--9-----8--/11--|-6--/9---/11-10-9-|
Ab|--6---------9-----|--6---------------|
Eb|------------------|------------------|


I feel it should be this


eb|------------------|--------------------------|
Bb|------------------|--------------------------|
Gb|------------------|--------------------------|
Db|-6--9-----8--/11--|-6--/9---/11-9-8-4~------|
Ab|--6---------9-----|--6-----------------------|
Eb|------------------|--------------------------|

I want to post or [tab]
guest
You may want to rate the tab now too:
select rating
Please do not post tabs as comments. Select "correction" instead!