Oops, an error
Loading. Please wait.

Metaphor Tab

version 1
version 1

Intro

Whole song

6,321 views 3 this week
1 commentread comment
1 2 3 4 5
please rate
add to favorites
launch autoscroll
font size
0
reset
how to read this tab
guitar tuner
Autoscroll
slow
fast
+/-
esc
set tempo
stop
Help us to improve Ultimate-Guitar.com Take our survey!
×
Author
It sounds like theyre using a 12 string guitar or an effect.

Drop C Tuning - C G C F A D

Legend
h - hammer-on
p - pull-off

D|----------------------------------6--------------|
A|-----9h10-12--10-9h10p9------9h10---12--10--12---|
F|11----------------------11-----------------------|
C|-------------------------------------------------|
G|-------------------------------------------------|
C|-------------------------------------------------|

D|--------------------------------------12-10-------------|
A|-----9h10-12--10-9h10p9----------9h10-------------------|
F|11----------------------11--9h11-----------------9h11--9|
C|--------------------------------------------9h11--------|
G|--------------------------------------------------------|
C|--------------------------------------------------------|
Suggest correction
Give kudos to tab author, rate the tab!
1 2 3 4 5
comments
print report bad tab
1 comment total.
0 reply
mcr_02_fan 37 wrote on November 12 2007, 05:37 pm

i really think this this isnt that good

guest
You may want to rate the tab now too:
select rating
Wanna post a correction for this tab? Suggest correction