Oops, an error
Loading. Please wait.

Moonshield Tab

version 2
version 2

Whole song

Interactive

2,357 views 3 this week
1 commentread comment
1 2 3 4 5
2 more votes to show rating
add to favorites
launch autoscroll
font size
0
reset
how to read this tab
guitar tuner
Autoscroll
slow
fast
+/-
esc
set tempo
stop
Help us to improve Ultimate-Guitar.com Take our survey!
×
Moonshield by In Flames
***********************

-transcribed by Markus Marjomaa, mmarjoma@mail.student.oulu.fi

The main riff:
                              1.         2.
|---------------------------|-----------|--------------|
|---------------------------|-----------|--------------|
|---------------------------|-----------|--------------|
|-33-------33-------55------|-6-5-3-----|-5-6-8-13-8-6-|
|----3-1-3----3-1-3----3-1-3|------6-3-6|--------------|
|---------------------------|-----------|--------------|
                                                 T
 
|--------------------------------------------------------------|
|------------------------------------------4-------------------|
|--------------------------------------------3-----------------|
|-6-5-3----------6-6s8-6--3-5-6-5-3------------6-5-3-1-3-3-3-5-|
|-------6-3--3-4--------------------6-3--3---------------------|
|--------------------------------------------------------------|

The acoustic part, for playing with only one guitar:

   Fm               Eb            Ab
 |-------------------------------------|
 |-1--1-1-1---1-2-1--------------------|
 |----------3--------3-3-3-1-3-5-------|
 |-------------------1-----------6-6-8-|
 |-------------------------------------|
 |-1---------------------------4-4-----|

   Fm                   ?              Fm

 |----------------1------------------------|
 |-1--1-1-1---1-2---1----------------------|
 |----------3----------1-0---0-1-3-0-1-1-3-|
 |-------------------------3-------1-------|
 |---------------------4-------------------|
 |-1---------------------------------1-----|

-----------------------------------------------------------

/ The following is the author's own interpretation of the song, to be used -
/ for studying or private use only, removal of any part of this ten line   -
/ header is illegal!!!  Removal of the transcribers name or anything       -
/ relevant to the transcriber is also illegal, as so is the removal of the -
/ place inwhich the tab was downloaded. Publishing as well as printing of  -
/ the tab is illegal without permission of the transcriber and copyright   -
/ owner of the song. Failure to apply to these laws result will in legal   -
/ action from the appropriate parties.                                     -


join the death/black tab mailing list my emailing 

Moonshield by In Flames

 Okay, this is roughly what I have for Moonshield so far. Some notes to help

 you along: I'm sure they play this with a capo (or else they just decided

 to be difficult and write something in Ab). Anys, this transcription is in

 standard tuning. I'm just gonna give a quick rundown of the rhythm strums

 and some lead bits, but won't bother about structure, timing or lyrics yet.

 Oh, the time sig is 6/8.

 The cool riff based on the Ab Major scale...

 |----------------------------------------------------|

 |------------------------------------------4---------|

 |--------------------------------------------3-------|

 |-6-5-3----------6-6s8-6--3-5-6-5-3------------6s8-6-|

 |-------6-3--3-4--------------------6-3--3-----------|

 |----------------------------------------------------|

 Next is that quiet bit that sounds like a minor version of "for he's a jolly

 good fellow" :) In Flames use two guitars, but this is faking it by myself.

 If you've got two guitarists, then just seperate the lead from the chords.

   Fm               Eb            Ab

 |--------------------------------------|

 |-1--1-1-1---1-2-1---------------------|

 |----------3-----------------------5---|

 |-------------------8--8-8-8-6-8-----6-|

 |-------------------6------------------|

 |-1--------------------------------4-4-|

   Fm                   ?              Fm

 |----------------1-----------------------|

 |-1--1-1-1---1-2---1---------------------|

 |----------3--------------------------1--|

 |----------------------6-5-3-5-6-8-5-----|

 |----------------------4-----------6-----|

 |-1-----------------------------------1--|

 The run up the neck is basically just a pattern of picking strings 6 5 and

 4 on these chords: Bb Cm Db Eb

 Wait, I'm confused... (my notes are a mess) there's a picking run also

 using strings 6, 5 and 4 which goes something like this:

    Ab    Bb     B

 4:-----6------8-----9----

 5:---6------8-----9------   then the same chords       vv   vv   v hold

 6:-4------6-----7---------  played as a rhythm like: | Ab   Bb | B      |
Suggest correction
Give kudos to tab author, rate the tab!
1 2 3 4 5
comments
print report bad tab
1 comment total.
0 reply
Aminos 10 May 13, 2007 11:14 AM

wrong

guest
You may want to rate the tab now too:
select rating
Wanna post a correction for this tab? Suggest correction