Oops, an error
Loading. Please wait.

My Sweet Shadow Tab

version 2
version 2

Whole song

14,529 views 3 this week
5 commentsread comments
1 2 3 4 5
x 7
add to favorites
launch autoscroll
font size
0
reset
how to read this tab
guitar tuner
×
Best way to learn
"My Sweet Shadow"
Autoscroll
slow
fast
+/-
esc
set tempo
stop
This song is played in Dropped A#
when you see a a letter then number (A1 for e.g.)
then that is the riff name

[A1]
e|-------------------------------------|
B|-------------------------------------|
G|------3----5---------------5---------|
D|0-----3----3----10----5--3-5---------|
A|0-----1----3----8-----5--3-3---------|
E|0---------------8-----5--3-----------|

[A1]
e|-------------------------------------|
B|-------------------------------------|
G|------3----5---------------5---------|
D|0-----3----3----10----5--3-5---------|
A|0-----1----3----8-----5--3-3---------|
E|0---------------8-----5--3-----------|

[B1]
e|----------------------------------------------------------|
B|----------------------------------------------------------|
G|----------------------------------------------------------|
D|-323------------32-------x-x-x-x-x-x-x-x-x-x-x-x-x-x-x----|
A|------xxx-01-x-----x-0---8-8-8-8-8-8-8-5-5-5-5-5-5-5-5----|
E|------000----0-----0--8--8-8-8-8-8-8-8-5-5-5-5-5-5-5-5----|

[B2]
e|----------------------------------------------------------|
B|----------------------------------------------------------|
G|----------------------------------------x-x-x-x-x-x-x-----|
D|-323------------32----------------------5-5-5-5-5-5-5-----|
A|------xxx-01-x-----x-0--x-x-x-x-x-x-x-3-3-3-3-3-3-3-3-----|
E|------000----0-----0--3-3-3-3-3-3-3-3---------------------|

[B1]
e|----------------------------------------------------------|
B|----------------------------------------------------------|
G|----------------------------------------------------------|
D|-323------------32-------x-x-x-x-x-x-x-x-x-x-x-x-x-x-x----|
A|------xxx-01-x-----x-0---8-8-8-8-8-8-8-5-5-5-5-5-5-5-5----|
E|------000----0-----0--8--8-8-8-8-8-8-8-5-5-5-5-5-5-5-5----|

[B2]
e|----------------------------------------------------------|
B|----------------------------------------------------------|
G|----------------------------------------x-x-x-x-x-x-x-----|
D|-323------------32----------------------5-5-5-5-5-5-5-----|
A|------xxx-01-x-----x-0--x-x-x-x-x-x-x-3-3-3-3-3-3-3-3-----|
E|------000----0-----0--3-3-3-3-3-3-3-3---------------------|

[C1]
e|----------------------------------------------------------|
B|----------------------------------------------------------|
G|----------------------------------------------------------|
D|-x-xx-xx-xx-xx-xx-x-xx-xx--10-10--------------------------|
A|-0-00-00-00-00-00-0-00-00--8--8---------------------------|
E|-0-00-00-00-00-00-0-00-00--8--8---------------------------|

[C1]
e|----------------------------------------------------------|
B|----------------------------------------------------------|
G|----------------------------------------------------------|
D|-x-xx-xx-xx-xx-xx-x-xx-xx--10-10--------------------------|
A|-0-00-00-00-00-00-0-00-00--8--8---------------------------|
E|-0-00-00-00-00-00-0-00-00--8--8---------------------------|

[D1]
e|----------------------------------------------------------|
B|----------------------------------------------------------|
G|-----------------------0-----------5----------------------|
D|---0-2-3-0-(0)---0-2-3----3-2-0-2-3-----------------------|
A|----------------------------------------------------------|
E|-0-------------0------------------------------------------|

[D2]
e|----------------------------------------------------------|
B|----------------------------------------------------------|
G|----------------------------------------------------------|
D|---0-2-3-0-(0)---0-2-3-2--0------0------------------------|
A|-----------------------------3-0--------------------------|
E|-0-------------0------------------------------------------|

[D1]
e|----------------------------------------------------------|
B|----------------------------------------------------------|
G|-----------------------0-----------5----------------------|
D|---0-2-3-0-(0)---0-2-3----3-2-0-2-3-----------------------|
A|----------------------------------------------------------|
E|-0-------------0------------------------------------------|

[D2]
e|----------------------------------------------------------|
B|----------------------------------------------------------|
G|----------------------------------------------------------|
D|---0-2-3-0-(0)---0-2-3-2--0------0------------------------|
A|-----------------------------3-0--------------------------|
E|-0-------------0------------------------------------------|

[E1]
e|----------------------------------------------------------|
B|----------------------------------------------------------|
G|----------------------------------------------------------|
D|-x-x-x-x-x-x--x-x-x--x------------------------------------|
A|-5-5-5-5-5-5--5-5-5--5-8-7--------------------------------|
E|-5-5-5-5-5-5--5-5-5--5-8-7--------------------------------|

[E2]
e|----------------------------------------------------------|
B|----------------------------------------------------------|
G|----------------------------------------------------------|
D|-x-x-x-x-x-x--x-x-x--x------------------------------------|
A|-5-5-5-5-5-5--5-5-5--5-8-10-------------------------------|
E|-5-5-5-5-5-5--5-5-5--5-8-10-------------------------------|

[E1]
e|----------------------------------------------------------|
B|----------------------------------------------------------|
G|----------------------------------------------------------|
D|-x-x-x-x-x-x--x-x-x--x------------------------------------|
A|-5-5-5-5-5-5--5-5-5--5-8-7--------------------------------|
E|-5-5-5-5-5-5--5-5-5--5-8-7--------------------------------|

[E2]
e|----------------------------------------------------------|
B|----------------------------------------------------------|
G|----------------------------------------------------------|
D|-x-x-x-x-x-x--x-x-x--x------------------------------------|
A|-5-5-5-5-5-5--5-5-5--5-8-10-------------------------------|
E|-5-5-5-5-5-5--5-5-5--5-8-10-------------------------------|

(there is and electronica sound here,
It looks like Bjorn plays it in th music
Video but don't even work about it here)

[A1]
e|-------------------------------------|
B|-------------------------------------|
G|------3----5---------------5---------|
D|0-----3----3----10----5--3-5---------|
A|0-----1----3----8-----5--3-3---------|
E|0---------------8-----5--3-----------|x2

[B1]
e|----------------------------------------------------------|
B|----------------------------------------------------------|
G|----------------------------------------------------------|
D|-323------------32-------x-x-x-x-x-x-x-x-x-x-x-x-x-x-x----|
A|------xxx-01-x-----x-0---8-8-8-8-8-8-8-5-5-5-5-5-5-5-5----|
E|------000----0-----0--8--8-8-8-8-8-8-8-5-5-5-5-5-5-5-5----|

[B2]
e|----------------------------------------------------------|
B|----------------------------------------------------------|
G|----------------------------------------x-x-x-x-x-x-x-----|
D|-323------------32----------------------5-5-5-5-5-5-5-----|
A|------xxx-01-x-----x-0--x-x-x-x-x-x-x-3-3-3-3-3-3-3-3-----|
E|------000----0-----0--3-3-3-3-3-3-3-3---------------------|

[B1]
e|----------------------------------------------------------|
B|----------------------------------------------------------|
G|----------------------------------------------------------|
D|-323------------32-------x-x-x-x-x-x-x-x-x-x-x-x-x-x-x----|
A|------xxx-01-x-----x-0---8-8-8-8-8-8-8-5-5-5-5-5-5-5-5----|
E|------000----0-----0--8--8-8-8-8-8-8-8-5-5-5-5-5-5-5-5----|

[B2]
e|----------------------------------------------------------|
B|----------------------------------------------------------|
G|----------------------------------------x-x-x-x-x-x-x-----|
D|-323------------32----------------------5-5-5-5-5-5-5-----|
A|------xxx-01-x-----x-0--x-x-x-x-x-x-x-3-3-3-3-3-3-3-3-----|
E|------000----0-----0--3-3-3-3-3-3-3-3---------------------|

[E1]
e|----------------------------------------------------------|
B|----------------------------------------------------------|
G|----------------------------------------------------------|
D|-x-x-x-x-x-x--x-x-x--x------------------------------------|
A|-5-5-5-5-5-5--5-5-5--5-8-7--------------------------------|
E|-5-5-5-5-5-5--5-5-5--5-8-7--------------------------------|

[E2]
e|----------------------------------------------------------|
B|----------------------------------------------------------|
G|----------------------------------------------------------|
D|-x-x-x-x-x-x--x-x-x--x------------------------------------|
A|-5-5-5-5-5-5--5-5-5--5-8-10-------------------------------|
E|-5-5-5-5-5-5--5-5-5--5-8-10-------------------------------|

[E1]
e|----------------------------------------------------------|
B|----------------------------------------------------------|
G|----------------------------------------------------------|
D|-x-x-x-x-x-x--x-x-x--x------------------------------------|
A|-5-5-5-5-5-5--5-5-5--5-8-7--------------------------------|
E|-5-5-5-5-5-5--5-5-5--5-8-7--------------------------------|

[E2]
e|----------------------------------------------------------|
B|----------------------------------------------------------|
G|----------------------------------------------------------|
D|-x-x-x-x-x-x--x-x-x--x------------------------------------|
A|-5-5-5-5-5-5--5-5-5--5-8-10-------------------------------|
E|-5-5-5-5-5-5--5-5-5--5-8-10-------------------------------|

[A1]
e|-------------------------------------|
B|-------------------------------------|
G|------3----5---------------5---------|
D|0-----3----3----10----5--3-5---------|
A|0-----1----3----8-----5--3-3---------|
E|0---------------8-----5--3-----------|x2

[F1]
e|----------------------------------------------------------|
B|----------------------------------------------------------|
G|----------------------------------------------------------|
D|-x--x-x--x-x--x-x--x-x--x-x--x--x-x--x-x------------------|
A|-0--0-0--0-0--0-0--0-0--0-0--0--0-0--0-0--8--/5\----------|
E|-0--0-0--0-0--0-0--0-0--0-0--0--0-0--0-0--8--/5\----------|

[G1]
e|----------------------------------------------------------|
B|----------------------------------------------------------|
G|----------------------------------------------------------|
D|-x--x-x--x-x--x-x--x-x--x-x--x--x-x--x-x------------------|
A|-2--2-2--2-2--2-2--2-2--2-2--2--2-2--2-2-3-3-5----3-5-----|
E|-2--2-2--2-2--2-2--2-2--2-2--2--2-2--2-2--3---3-5---------|

[G2]
e|----------------------------------------------------------|
B|----------------------------------------------------------|
G|----------------------------------------------------------|
D|-x--x-x--x-x--x-x--x-x--x-x--x--x-x--x-x--5--5------------|
A|-2--2-2--2-2--2-2--2-2--2-2--2--2-2--2-2--3--3------------|
E|-2--2-2--2-2--2-2--2-2--2-2--2--2-2--2-2------------------|

[G1]
e|----------------------------------------------------------|
B|----------------------------------------------------------|
G|----------------------------------------------------------|
D|-x--x-x--x-x--x-x--x-x--x-x--x--x-x--x-x------------------|
A|-2--2-2--2-2--2-2--2-2--2-2--2--2-2--2-2-3-3-5----3-5-----|
E|-2--2-2--2-2--2-2--2-2--2-2--2--2-2--2-2--3---3-5---------|

[G2]
e|----------------------------------------------------------|
B|----------------------------------------------------------|
G|----------------------------------------------------------|
D|-x--x-x--x-x--x-x--x-x--x-x--x--x-x--x-x--5--5------------|
A|-2--2-2--2-2--2-2--2-2--2-2--2--2-2--2-2--3--3------------|
E|-2--2-2--2-2--2-2--2-2--2-2--2--2-2--2-2------------------|

[H1](this is a quick fill)
e|------|
B|------|
G|------|
D|--0---|
A|--0---|
E|--0---|
(again with the electronica)

[A1]
e|-------------------------------------|
B|-------------------------------------|
G|------3----5---------------5---------|
D|0-----3----3----10----5--3-5---------|
A|0-----1----3----8-----5--3-3---------|
E|0---------------8-----5--3-----------|x6

[H2](guitar ending)
e|------------------------------|
B|------------------------------|
G|------------------------------|
D|--x--x-x--x-x-----------------|
A|--0--0-0--0-0-----------------|
E|--0--0-0--0-0-----------------|

(ends with electronica)

************************************

| x    Dead note
| (n)  Ghost note
| /    Slide up
| \    Slide down

************************************
Suggest correction
comments
print report bad tab
5 comments total. Showing first comments.
0 reply
silentshane420 10 May 01, 2007 07:41 PM

dude this tab fuc%'n sucks.

0 reply
silentshane420 10 May 01, 2007 07:42 PM

non accurate

+1 reply
Masterbasser36 651 Mar 20, 2009 04:08 PM

i like it

guest
You may want to rate the tab now too:
select rating
Wanna post a correction for this tab? Suggest correction