Oops, an error
Loading. Please wait.

Only For The Weak Tab

version 2
version 2
12,276 views 6 this week
4 commentsread comments
1 2 3 4 5
accurate
x 8
add to favorites
launch autoscroll
font size
0
reset
how to read this tab
guitar tuner
Tab Pro tools
  • play this tab
  • loop segment
  • change instrument
  • show fretboard
  • metronome
×
Best way to learn
"Only For The Weak"
Autoscroll
slow
fast
+/-
esc
set tempo
stop
Contributor
Difficulty
intermediate
Tabbed by: Ollie
Email:Deathmetalgod666@hotmail.com

Tuning: Drop D


Intro
Guitar 1:

e|---------------------------------------------------|
B|---------------------------------------------------|
G|--------12--------------12-13--12--10--8--10--7----|
D|10--13------13--10--13-----------------------------|
A|---------------------------------------------------|
D|---------------------------------------------------|

e|--------------------------------------|                     |----------|
B|--------------------------------------|    Second time adds |----------|
G|--------12----------------------------|    and holds        |----------|
D|10--13------13--15-13-12--10--12--8---|                     |-9--------|
A|--------------------------------------|                     |----------|
D|--------------------------------------|                     |----------|

Guitar 2:

e|---------------------------------------|
B|---------------------------------------|
G|---------------------------------------|
D|---------------------------------------|   X2
A|0000333366668888-0000333311118888------|
D|0000333366668888-0000333311118888------|

 2nd Part
Guitar 2:
e|-------------------------------------------------------|
B|-------------------------------------------------------|
G|-------------------------------------------------------|
D|-------------------------------------------------------|   X2
A|0--0--0--0--0--0--0-5-8--0--0--0--0--0--0--0-5-8-0-----|
D|0--0--0--0--0--0--0-5-8--0--0--0--0--0--0--0-5-8-0-----|
  .     .     .     .        .     .     .     .    

Third Part

Guitar 1: 
e|-----------------------------------------------|
B|-----------------------------------------------|
G|-----------------------------------------------|
D|13-12-13-12-10---12-8-----13-12-13-12-10---8-12|    X2
A|-----------------------------------------------|
D|-----------------------------------------------|

Guitar 2:
e|----------------------------------------|
B|----------------------------------------|
G|----------------------------------------|
D|----------------------------------------|  X4
A|0--0--0--0--0--0--0--1--1--1--1--1--1---|
D|0--0--0--0--0--0--0--1--1--1--1--1--1---|
  .     .     .     .     .     .     .

Part 3
e|--------------------------------------------|
B|--------------------------------------------|
G|--------------------------------------------|
D|--------------------------------------------|   X2
A|0--0--0--0--1--1--1--1--5--5--5--5--666-888-|
D|0--0--0--0--1--1--1--1--5--5--5--5--666-888-|
  .     .     .     .     .     .     ..  ..

Part 4
e|------------------------------------|
B|------------------------------------|
G|----------------------10--12-10-8-5-|
D|10-12-13-12--10--5------------------|     X2
A|------------------------------------|
D|------------------------------------|

e|------------------------------------|
B|------------------------------------|
G|10-12-13-12--10--5---10--12-10-8-5--|    X2
D|------------------------------------|
A|------------------------------------|
D|------------------------------------|


Chorus
Guitar 1:

e|---------------------------------------------------|
B|---------------------------------------------------|
G|--------12--------------12-13--12--10--8--10--7----|
D|10--13------13--10--13-----------------------------|
A|---------------------------------------------------|
D|---------------------------------------------------|

e|--------------------------------------|                     |----------|
B|--------------------------------------|    Second time adds |----------|
G|--------12----------------------------|    and holds        |----------|
D|10--13------13--15-13-12--10--12--8---|                     |-9--------|
A|--------------------------------------|                     |----------|
D|--------------------------------------|                     |----------|

Guitar 2:

e|---------------------------------------|
B|---------------------------------------|
G|---------------------------------------|
D|---------------------------------------|
A|0000333366668888-0000333311118888------|
D|0000333366668888-0000333311118888------|

Part 6
Guitar 1: 
e|-----------------------------------------------|
B|-----------------------------------------------|
G|-----------------------------------------------|
D|13-12-13-12-10---12-8-----13-12-13-12-10---8-12|    X2
A|-----------------------------------------------|
D|-----------------------------------------------|

Guitar 2:
e|----------------------------------------|
B|----------------------------------------|
G|----------------------------------------|
D|----------------------------------------|  X4
A|0--0--0--0--0--0--0--1--1--1--1--1--1---|
D|0--0--0--0--0--0--0--1--1--1--1--1--1---|
  .     .     .     .     .     .     .

Part 7
Guitar 2

e|--------------------------------------------|
B|--------------------------------------------|
G|--------------------------------------------|
D|--------------------------------------------|   X2
A|0--0--0--0--1--1--1--1--5--5--5--5--666-888-|
D|0--0--0--0--1--1--1--1--5--5--5--5--666-888-|
  .     .     .     .     .     .     ..  ..

Part 8

e|------------------------------------|
B|------------------------------------|
G|----------------------10--12-10-8-5-|
D|10-12-13-12--10--5------------------|     X2
A|------------------------------------|
D|------------------------------------|

e|------------------------------------|
B|------------------------------------|
G|10-12-13-12--10--5---10--12-10-8-5--|    X2
D|------------------------------------|
A|------------------------------------|
D|------------------------------------|


Chorus X2
Guitar 1:

e|---------------------------------------------------|
B|---------------------------------------------------|
G|--------12--------------12-13--12--10--8--10--7----|
D|10--13------13--10--13-----------------------------|
A|---------------------------------------------------|
D|---------------------------------------------------|

e|--------------------------------------|                     |----------|
B|--------------------------------------|    Second time adds |----------|
G|--------12----------------------------|    and holds        |----------|
D|10--13------13--15-13-12--10--12--8---|                     |-9--------|
A|--------------------------------------|                     |----------|
D|--------------------------------------|                     |----------|

Guitar 2:

e|---------------------------------------|
B|---------------------------------------|
G|---------------------------------------|
D|---------------------------------------|
A|0000333366668888-0000333311118888------|
D|0000333366668888-0000333311118888------|

Solo

Guitar 2:

e|----------------------------------------|
B|----------------------------------------|
G|----------------------------------------|
D|----------------------------------------|  X1
A|0--0--0--0--0--0--0--1--1--1--1--1--1---|
D|0--0--0--0--0--0--0--1--1--1--1--1--1---|
  .     .     .     .     .     .     .

e|---------------------|
B|---------------------|
G|---------------------|
D|---------------------|   X2
A|000011115555-666-888-|
D|000011115555-666-888-|
               ..  ..

e|---------------------|
B|---------------------|
G|---------------------|
D|---------------------|   X4
A|6---10---8----8------|
D|6---10---8----8------|

odd effect and then..

Guitar 1:

e|-----------------------------------------------|
B|-----------------------------------------------|
G|------14----------14-15---14-12------12-9------|
D|12-15----15-12-15---------------15-------------|    X1
A|-----------------------------------------------|
D|-----------------------------------------------|
These 2 repeat until song fades out
e|-----------------------------------------------|
B|-----------------------------------------------|
G|------14---------------------------------------|
D|12-15----17-15-14-12--14--10-------------------|    X1
A|-----------------------------------------------|
D|-----------------------------------------------|


Thanks 4 lookin!
comments
print report bad tab
4 comments total. Showing first comments.
0 reply
Gilders wrote on April 19 2007, 03:33 pm

Incredibly inaccurate :(
In Flames use standard C tuning for this song, not drop D.

0 reply
651Tom wrote on May 5 2009, 03:33 pm

Very innacurate. Doesn't fit with song. Wrong tuning. Bad timing.

2/5

0 reply
andylish20 wrote on August 30 2009, 12:50 pm

I think it's a good tab and I don't care if In Flames don't play it in Drop D... 4/5 :)

I want to post or [tab]
guest
You may want to rate the tab now too:
select rating
Please do not post tabs as comments. Select "correction" instead!