Oops, an error
Loading. Please wait.

Pacing Deaths Trail Tab

version 1
version 1

Whole song

Interactive

2,793 views 6 this week
17 commentsread comments
1 2 3 4 5
not so good
x 3
add to favorites
launch autoscroll
font size
0
reset
how to read this tab
guitar tuner
Tab Pro tools
  • play this tab
  • loop segment
  • change instrument
  • show fretboard
  • metronome
Autoscroll
slow
fast
+/-
esc
set tempo
stop
Contributor
Difficulty
Tuning
intermediate
D A D G B E
First of all, i dont care what In Flames tunes to.
This is what I tune to, and this is accurate.
This looks harder than it is.
And listen to the song to get guitar parts 1 and 2 in time together.
Björn and Jesper to a great job of putting the parts together.
Post anything wrong in comments, apart from the tuning.
Dont post unless you have tried the song.

Drop D - D A D G B E

Legend - 
h - hammer-on             p - pull-off
. - palm mute             x - mute
b - bend                  r - return
be - bend and use effects

Intro

Guitar 1
Use an octaver after the first hammer-on of each bar.

E|--------------------------|----------------|
B|--------------------------|----------------|
G|----------------5-5h7-----|----------------|
D|7--5h7--5h7-5h7-------7h9-|7-5h7--5-7------|
A|--------------------------|-----------5h7-0|
D|--------------------------|----------------| repeat twice

Guitar 2

E|------------|
B|------------|
G|------------|
D|------------|
A|4-44--444444|
D|4-44--444444| repeat 4 times
  . ..  ......

Guitar 1

E|---------------------|------------------|---------------------|
B|---------------------|------------------|---------------------|
G|-------------5b7r5---|-------------7--5-|-------------5b7r5---|
D|7-5h7----5-7-------7-|7-5h7----5-7------|7-5h7----5-7-------7-|
A|---------------------|------------------|---------------------|
D|---------------------|------------------|---------------------|

Guitar 2

E|--------------------------------|
B|--------------------------------|
G|--------------------------------|
D|--------------------------------|
A|4-4-4-4-4-4-4-444444-4-4-4-4-4-4|
D|4-4-4-4-4-4-4-444444-4-4-4-4-4-4| repeat 3 times
  . . . . . . . ...... . . . . . .

Guitar 1

E|-------------------|
B|-------------------|
G|----5-5-7-7---5-7--|
D|7-7---------7-----5|
A|-------------------|
D|-------------------|

Guitar 2

E|-------------------|
B|-------------------|
G|--------------5-7--|
D|------------7-----5|
A|4-4-4-4-4-4--------|
D|4-4-4-4-4-4--------|
  . . . . . .

Verse 1

Guitar 1

E|--------------|---------------|
B|--5-----------|--5------------|
G|------7---5---|------7-5-5h7--|
D|7---7---7---7-|7---7---------7|
A|--------------|---------------|
D|--------------|---------------| repeat twice

Guitar 2

E|----------|
B|----------|
G|----------|
D|----------|
A|4444--4444|
D|4444--4444| repeat 4 times
  ....  ....

Guitar 1
Use an octaver after the first hammer-on of each bar.

E|--------------------------|----------------|
B|--------------------------|----------------|
G|----------------5-5h7-----|----------------|
D|7--5h7--5h7-5h7-------7h9-|7-5h7--5-7------|
A|--------------------------|-----------5h7-0|
D|--------------------------|----------------| repeat twice

Guitar 2

E|------------|
B|------------|
G|------------|
D|------------|
A|4-44--444444|
D|4-44--444444| repeat 4 times
  . ..  ......

Guitar 1

E|--------------|---------------|
B|--5-----------|--5------------|
G|------7---5---|------7-5-5h7--|
D|7---7---7---7-|7---7---------7|
A|--------------|---------------|
D|--------------|---------------| repeat twice

Guitar 2

E|----------|                     |E|-------|
B|----------|                     |B|-------|
G|----------|                     |G|-------|
D|----------|                     |D|-------|
A|4444--4444|                     |A|6-6-6-6|
D|4444--4444| repeat 4 times then |D|6-6-6-6|
  ....  ....

Guitar 1

E|------------------|
B|------------------|
G|------------------|
D|4--4-4--4-4-6--8--|
A|------------------|
D|------------------| repeat 4 times

Guitar 2

E|----------------------------|
B|----------------------------|
G|----------------------------|
D|----------------6--6--8--8--|
A|4-x-x-4-x-x-4-x-6--6--8--8--|
D|4-x-x-4-x-x-4-x-4--4--6--6--| repeat 3 times

E|-------------------------------|
B|-------------------------------|
G|-------------------------------|
D|----------------8-8-8-8-6-6-6-6|
A|4-x-x-4-x-x-4-x-8-8-8-8-6-6-6-6|
D|4-x-x-4-x-x-4-x-6-6-6-6-4-4-4-4|

Chorus

Guitar 1

E|-------------|-------------|--------------|---------------|
B|5------------|5------------|-----------5--|---------------|
G|----7------5-|----7------5-|5---7--5-7----|7-5------------|
D|-------5-7---|-------5-7---|--------------|----7-5-------5|
A|-------------|-------------|--------------|--------7-5-7--|
D|-------------|-------------|--------------|---------------|

Guitar 2

E|----------------|----------------|----------------|----------------|
B|----------------|----------------|----------------|----------------|
G|----------------|----------------|----------------|----------------|
D|5-5-5-3-3-3-3-3-|5-5-5-1-1-1-1-1-|5-5-5-7-7-7-7-7-|6-6-6-8-8-8-8-8-|
A|5-5-5-3-3-3-3-3-|5-5-5-1-1-1-1-1-|5-5-5-7-7-7-7-7-|6-6-6-8-8-8-8-8-|
D|5-5-5-3-3-3-3-3-|5-5-5-1-1-1-1-1-|5-5-5-7-7-7-7-7-|6-6-6-8-8-8-8-8-|

Repeat twice.

Pre-Verse

Guitar 1
Use an octaver after the first hammer-on of each bar.

E|--------------------------|----------------|
B|--------------------------|----------------|
G|----------------5-5h7-----|----------------|
D|7--5h7--5h7-5h7-------7h9-|7-5h7--5-7------|
A|--------------------------|-----------5h7-0|
D|--------------------------|----------------| repeat twice

Verse 2

Guitar 1

E|--------------|---------------|
B|--5-----------|--5------------|
G|------7---5---|------7-5-5h7--|
D|7---7---7---7-|7---7---------7|
A|--------------|---------------|
D|--------------|---------------| repeat twice

Guitar 2

E|----------|
B|----------|
G|----------|
D|----------|
A|4444--4444|
D|4444--4444| repeat 4 times
  ....  ....

Guitar 1
Use an octaver after the first hammer-on of each bar.

E|--------------------------|----------------|
B|--------------------------|----------------|
G|----------------5-5h7-----|----------------|
D|7--5h7--5h7-5h7-------7h9-|7-5h7--5-7------|
A|--------------------------|-----------5h7-0|
D|--------------------------|----------------| repeat twice

Guitar 2

E|------------|
B|------------|
G|------------|
D|------------|
A|4-44--444444|
D|4-44--444444| repeat 4 times
  . ..  ......

Guitar 1

E|--------------|---------------|
B|--5-----------|--5------------|
G|------7---5---|------7-5-5h7--|
D|7---7---7---7-|7---7---------7|
A|--------------|---------------|
D|--------------|---------------| repeat twice

Guitar 2

E|----------|                     |E|-------|
B|----------|                     |B|-------|
G|----------|                     |G|-------|
D|----------|                     |D|-------|
A|4444--4444|                     |A|6-6-6-6|
D|4444--4444| repeat 4 times then |D|6-6-6-6|
  ....  ....

Guitar 1

E|------------------|
B|------------------|
G|------------------|
D|4--4-4--4-4-6--8--|
A|------------------|
D|------------------| repeat 4 times

Guitar 2

E|----------------------------|
B|----------------------------|
G|----------------------------|
D|----------------6--6--8--8--|
A|4-x-x-4-x-x-4-x-6--6--8--8--|
D|4-x-x-4-x-x-4-x-4--4--6--6--| repeat 3 times

E|-------------------------------|
B|-------------------------------|
G|-------------------------------|
D|----------------8-8-8-8-6-6-6-6|
A|4-x-x-4-x-x-4-x-8-8-8-8-6-6-6-6|
D|4-x-x-4-x-x-4-x-6-6-6-6-4-4-4-4|

Chorus

Guitar 1

E|-------------|-------------|--------------|---------------|
B|5------------|5------------|-----------5--|---------------|
G|----7------5-|----7------5-|5---7--5-7----|7-5------------|
D|-------5-7---|-------5-7---|--------------|----7-5-------5|
A|-------------|-------------|--------------|--------7-5-7--|
D|-------------|-------------|--------------|---------------|

Guitar 2

E|----------------|----------------|----------------|----------------|
B|----------------|----------------|----------------|----------------|
G|----------------|----------------|----------------|----------------|
D|5-5-5-3-3-3-3-3-|5-5-5-1-1-1-1-1-|5-5-5-7-7-7-7-7-|6-6-6-8-8-8-8-8-|
A|5-5-5-3-3-3-3-3-|5-5-5-1-1-1-1-1-|5-5-5-7-7-7-7-7-|6-6-6-8-8-8-8-8-|
D|5-5-5-3-3-3-3-3-|5-5-5-1-1-1-1-1-|5-5-5-7-7-7-7-7-|6-6-6-8-8-8-8-8-|

Repeat twice.

Bridge

Guitar 1

E|-----------------------|--------------------------|
B|-----------------------|--------------------------|
G|-----------------------|--------------------------|
D|------------3----------|--------------------------|
A|5--3h5--3h5---5-3------|5--3h5--3h5-3-------------|
D|-----------------------|--------------------------|

Guitar 2

E|-----------------------|--------------------------|
B|-----------------------|--------------------------|
G|-----------------------|--------------------------|
D|--------------------4--|--------------4--4--4--4--|
A|--------------------4--|--------------4--4--4--4--|
D|--------------------4--|--------------4--4--4--4--|

Guitar 1

E|-----------------------|--------------------------|
B|-----------------------|--------------------------|
G|-----------------------|6--3--4--7-7-7-7-9-9-9-9--|
D|------------3----------|x--x--x--x-x-x-x-x-x-x-x--|
A|5--3h5--3h5---5-3------|4--1--2--5-5-5-5-7-7-7-7--|
D|-----------------------|--------------------------|

Guitar 2

E|-----------------------|--------------------------|
B|-----------------------|--------------------------|
G|-----------------------|--------------------------|
D|--------------------4--|---------5-5-5-5-7-7-7-7--|
A|--------------------4--|---------5-5-5-5-7-7-7-7--|
D|--------------------4--|---------5-5-5-5-7-7-7-7--|

Guitar 1

E|-------------|-------------|--------------|---------------|
B|5------------|5------------|5----------5--|---------------|
G|----7------5-|----7------5-|----7--5-7----|7-5------------|
D|-------5-7---|-------5-7---|--------------|----7-5-------5|
A|-------------|-------------|--------------|--------7-5-7--|
D|-------------|-------------|--------------|---------------|

Guitar 2

E|----------------|----------------|----------------|----------------|
B|----------------|----------------|----------------|----------------|
G|----------------|----------------|----------------|----------------|
D|5-5-5-3-3-3-3-3-|5-5-5-1-1-1-1-1-|5-5-5-7-7-7-7-7-|6-6-6-8-8-8-8-8-|
A|5-5-5-3-3-3-3-3-|5-5-5-1-1-1-1-1-|5-5-5-7-7-7-7-7-|6-6-6-8-8-8-8-8-|
D|5-5-5-3-3-3-3-3-|5-5-5-1-1-1-1-1-|5-5-5-7-7-7-7-7-|6-6-6-8-8-8-8-8-|

Repeat twice.

Guitar 1

E|---------------------------------|
B|---------------------------------|
G|---------------------------------|
D|4be---------------------5---5-5h7|
A|-------------------5h7----7------|
D|---------------------------------|

Guitar 2

E|------------------|
B|------------------|
G|------------------|
D|------------------|
A|4-4-4-4-4-4-444444|
D|4-4-4-4-4-4-444444| repeat 4 times
  . . . . . . ......

repeat twice

Verse 3

Guitar 1

E|---------------|
B|---------------|
G|---------------|
D|4-4-4-4-4-4-4-4|
A|---------------|
D|---------------| repeat 4 times

Guitar 2

E|----------------------------|
B|----------------------------|
G|----------------------------|
D|----------------6--6--8--8--|
A|4-x-x-4-x-x-4-x-6--6--8--8--|
D|4-x-x-4-x-x-4-x-4--4--6--6--| repeat 3 times

E|-------------------------------|
B|-------------------------------|
G|-------------------------------|
D|----------------8-8-8-8-6-6-6-6|
A|4-x-x-4-x-x-4-x-8-8-8-8-6-6-6-6|
D|4-x-x-4-x-x-4-x-6-6-6-6-4-4-4-4|

Chorus

Chorus

Guitar 1

E|-------------|-------------|--------------|---------------|
B|5------------|5------------|-----------5--|---------------|
G|----7------5-|----7------5-|5---7--5-7----|7-5------------|
D|-------5-7---|-------5-7---|--------------|----7-5-------5|
A|-------------|-------------|--------------|--------7-5-7--|
D|-------------|-------------|--------------|---------------|

Guitar 2

E|----------------|----------------|----------------|----------------|
B|----------------|----------------|----------------|----------------|
G|----------------|----------------|----------------|----------------|
D|5-5-5-3-3-3-3-3-|5-5-5-1-1-1-1-1-|5-5-5-7-7-7-7-7-|6-6-6-8-8-8-8-8-|
A|5-5-5-3-3-3-3-3-|5-5-5-1-1-1-1-1-|5-5-5-7-7-7-7-7-|6-6-6-8-8-8-8-8-|
D|5-5-5-3-3-3-3-3-|5-5-5-1-1-1-1-1-|5-5-5-7-7-7-7-7-|6-6-6-8-8-8-8-8-|

Repeat twice.

Coda/Outro

Guitar 1

E|---------------------------------|
B|---------------------------------|
G|---------------------------------|
D|------------------------5---5-5h7|
A|-------------------5h7----7------|
D|---------------------------------|

Guitar 2

E|------------------|
B|------------------|
G|------------------|
D|------------------|
A|4-4-4-4-4-4-444444|
D|4-4-4-4-4-4-444444| repeat 4 times
  . . . . . . ......

Guitar 1

E|-----------------|
B|-----------------|
G|--------------5--|
D|----------5-7---7|
A|5h7-7-7p5--------|
D|-----------------| repeat 8 times

Guitar 2

E|----------------|
B|----------------|
G|----------------|
D|----------------|
A|4444444444444444|
D|4444444444444444| repeat 8 times
  ................

Guitar 1 & 2

E|----|
B|----|
G|----|
D|5---|
A|5---|
D|5---|

Hope this is alright. Cheers till the next tab.
comments
We did not receive enough feedback on this tab! Please rate:
print report bad tab
1 2 3 4 5
17 comments total. Showing first comments.
+1 reply
Downfall65 wrote on October 16 2006, 09:52 am

Well i'm pretty sure no one wants to play it in this tuning anyway, because its beyond wrong in this too, the actual tuning is Drop A# youre not even close to that.

0 reply
dann_blood wrote on October 17 2006, 01:02 am

hmm, well ive got a group of people telling me in flames tune to Drop C and another group of people telling me they tune to drop A#. i think this is fairly accurate, and im pretty sure its the only free for all to see version on ultimate-guitar

0 reply
Kreuger wrote on October 17 2006, 08:16 pm

Drop C is CGCFAD not CADGBE. Most of their stuff is in C Standard with a handful of songs being in Drop A#

I want to post or [tab]
guest
You may want to rate the tab now too:
select rating
Please do not post tabs as comments. Select "correction" instead!