Oops, an error
Loading. Please wait.

Pallar Anders Visa Tab

version 1
version 1

Whole song

Interactive

11,563 views 12 this week
1 commentread comment
1 2 3 4 5
accurate
x 3
add to favorites
launch autoscroll
font size
0
reset
how to read this tab
guitar tuner
Autoscroll
slow
fast
+/-
esc
set tempo
stop
Help us to improve Ultimate-Guitar.com Take our survey!
×
----------------------------------------------------------------------------
                             Pallar Anders Visa-In Flames
                                      Colony
----------------------------------------------------------------------------
Tabbed by:metalreaper450
Email:metalreaper450@yahoo.com

I know that the verse riffs are right but the intro might be questionable
and I'm not sure what chords are played when the orchestra comes in.
I'm also not going to tab out the underlying guitar2 that does the arpeggios.

Listen to the song for timing, it's pretty obvious.
~ is related to vibrato and timing

Tuning: C-Standard

Intro Riff:
e|----------------------------------------------------x----------------------|
B|----------6---------------6----------------6--------6----------------------|
G|--------6---6-----------6---6------------6---6------6----------------------|
D|------8-------8-------8-------8--------8-------8----8----------------------|
A|----------------8---8-----------8----------------8--8----------------------|
E|-6----------------6---------------6-----------------6----------------------|

Riff A
e|-----------------------------------------------------------------|
B|-----------------------------------------------------------------|
G|-----8---8h10---10-----------------------------------------------|
D|-11-----------------11---8~---8---10--11--11---8~--11---10~------|
A|-----------------------------------------------------------------|
E|-----------------------------------------------------------------|

e|----------------------------------------------------------------|
B|----------------------------------------------------------------|
G|----------------------------------------------------------------|
D|-10h11p10--8--7--10--8~-----------------------------------------|
A|----------------------------------------------------------------|
E|----------------------------------------------------------------|

Riff B
e|---------------------------------------------------------------------------|
B|---------------------------------------------------------------------------|
G|-------8--8h10--10--10h11p10--8--10--11--11--8~--8---------8----8--11--10~-|
D|--11-----------------------------------------------11~--11---11------------|
A|---------------------------------------------------------------------------|
E|---------------------------------------------------------------------------|

Riff C
e|-----------------------------------------------------------------------|
B|-----------------------------------------------------------------------|
G|--10p8--10~--10-----------------8--10----------------------------------|
D|----------------11~--11--10--11-------11~--8~--8h11p8------------------|
A|-----------------------------------------------------11~--8~-----------|
E|-----------------------------------------------------------------------|

Riff D
e|-------------------------------------------------------------------------|
B|-------------------------------------------------------------------------|
G|------------------------10--8--8h10p8------------------------------------|
D|--8~--8--10--11--10--11---------------11--8--10~--10h11p10--8--7--10--8~-|
A|-------------------------------------------------------------------------|
E|-------------------------------------------------------------------------|

Riff E
e|---------------------------------------------------------------------------|
B|---------------------------------------------------------------------------|
G|------------8--10--8--10--13--11~--11h13p11--10----8~--8h10p8--------8-----|
D|11--10--11--------------------------------------11------------11--10---11~-|
A|---------------------------------------------------------------------------|
E|---------------------------------------------------------------------------|

Song Structure
Intro Riff
Riff A
Riff B
Riff C
Riff D

Riff A
Riff B
Riff C
Riff E

Orchestra comes in
finished


| /  slide up
| \  slide down
| h  hammer-on
| p  pull-off
| ~  vibrato
| +  harmonic
| x  Mute note
===============================================================================
Suggest correction
Give kudos to tab author, rate the tab!
1 2 3 4 5
comments
print report bad tab
1 comment total.
0 reply
erickjoel777 10 wrote on February 1 2014, 10:47 am

Sounds great man , nice job

guest
You may want to rate the tab now too:
select rating
Please do not post tabs as comments. Select "correction" instead!