Oops, an error
Loading. Please wait.

Pinball Map Bass Tab

version 1
version 1

Whole song

Interactive

3,052 views 1 this week
no commentswrite comment
1 2 3 4 5
please rate
add to favorites
launch autoscroll
font size
0
reset
guitar tuner
Autoscroll
slow
fast
+/-
esc
set tempo
stop
Help us to improve Ultimate-Guitar.com Take our survey!
×
Author
Difficulty
intermediate
Intro (0:00)                             Small Fill (0:17)
D#|--------------------------------|     D#|--------|
A#|000000000000000000000000--------| x4  A#|--------| x1
F#|------------------------1-1-3-3-|     F#|1-1-3-3-|
C#|--------------------------------|     C#|--------|

Verse (0:18)
D#|----------------------------------------------------------------|
A#|----------------------------------------------------------------| x2
F#|------------------------------------------------3333-333-333-333|
C#|0000-000-000-0000000-000-000-0000000-000-000-000----------------|

Prechorus (0:35)
D#|----------------------------------------------------------------|
A#|----------------------------------------------------------------|
F#|2-2222222222222----------------2-22222222222222-----------------|
C#|---------------0-00000000000000----------------0-000-000-000-000|
  |                                                                | x1
D#|----------------------------------------------------------------|
A#|----------------------------------------------------------------|
F#|2-2222222222222----------------2-22222222222222/12~-------------|
C#|---------------0-00000000000000---------------------------------|

Chorus (0:52)                                        (These notes are ones, not elevens.)
D#|----------------------------------------------------------------|
A#|----------------------------------------------------------------| x2
F#|-------3-------5--555-555-555-55-------3-------1--1113-5--------|
C#|1-------------------------------1-------------------------------|

intro (1:08)                             small fill (1:17)
D#|--------------------------------|     D#|--------|
A#|000000000000000000000000--------| x2  A#|--------| x1
F#|------------------------1-1-3-3-|     F#|1-1-3-3-|
C#|--------------------------------|     C#|--------|

Verse (1:18)
D#|----------------------------------------------------------------|
A#|----------------------------------------------------------------| x2
F#|------------------------------------------------3333-333-333-333|
C#|0000-000-000-0000000-000-000-0000000-000-000-000----------------|

Prechorus (1:35)
D#|----------------------------------------------------------------|
A#|----------------------------------------------------------------|
F#|2-2222222222222----------------2-22222222222222-----------------|
C#|---------------0-00000000000000----------------0-000-000-000-000|
  |                                                                | x1
D#|----------------------------------------------------------------|
A#|----------------------------------------------------------------|
F#|2-2222222222222----------------2-22222222222222/12~-------------|
C#|---------------0-00000000000000---------------------------------|

Chorus (1:51)                                        (These notes are ones, not elevens.)
D#|----------------------------------------------------------------|
A#|----------------------------------------------------------------| x2
F#|-------3-------5--555-555-555-55-------3-------1--1113-5--------|
C#|1-------------------------------1-------------------------------|

Postchorus (2:09)
D#|------------------------------------------------------------------------------------------------|
A#|------------------------------------------------------------------------------------------------| x1
F |-------3-------1--1113-5~-------5*----------------------------------5*--------------1---0-------|
C |1-------------------------------------------------------------------------------------------3-0-|

Bridge I (2:21)
D#|------------------------------------------------------------|
A#|0-0-0-0-0-0-0-0-0-0-0-0-0-0-0-0-0-0-0-0-0-0-0-0-------------| x3
F |------------------------------------------------1---0-------|
C |--------------------------------------------------------3-0-|

Guitar Solo (2:46)
D#|----------------------------------------------------------------|
A#|----------------------------------------------------------------|
F |--------3-3-3-3-5-5-5-5-5-5-5-5---------3-3-3-3-1-1-3-3-5-5-5-5-|
C |1-1-1-1-------------------------1-1-1-1-------------------------|
  |                                                                | x1
D#|----------------------------------------------------------------|
A#|----------------------------------------------------------------|
F |--------3-3-3-3-5-5-5-5-5-5-5-5---------3-3-3-3-1-1-3-5*--------|
C |1-1-1-1-------------------------1-1-1-1-------------------------|

Prechorus (3:03)
D#|----------------------------------------------------------------|
A#|----------------------------------------------------------------|
F#|2-2222222222222----------------2-22222222222222-----------------|
C#|---------------0-00000000000000----------------0-000-000-000-000|
  |                                                                | x1
D#|----------------------------------------------------------------|
A#|----------------------------------------------------------------|
F#|2-2222222222222----------------2-22222222222222/12~-------------|
C#|---------------0-00000000000000---------------------------------|

Chorus (3:20)                                        (These notes are ones, not elevens.)
D#|----------------------------------------------------------------|
A#|----------------------------------------------------------------| x2
F#|-------3-------5--555-555-555-55-------3-------1--1113-5--------|
C#|1-------------------------------1-------------------------------|

Bridge II (3:37)
D#|----------------------------------------------------------------|
A#|----------------------------------------------------------------| x1
F |-------3---------------3---------------3-------1--1113-5*-------|
C |1---------------1---------------1-------------------------------|

Intro (3:45)                             Small Fill (4:02)
D#|--------------------------------|     D#|--------|
A#|000000000000000000000000--------| x4  A#|--------| x1
F#|------------------------1-1-3-3-|     F#|1-1-3-3-|
C#|--------------------------------|     C#|--------|

Outro (4:03)
D#|----------------|
A#|----------------| x1
F |3-3-3*----------|
C |----------------|
Suggest correction
Give kudos to tab author, rate the tab!
1 2 3 4 5
comments
print report bad tab
guest
You may want to rate the tab now too:
select rating
Please do not post tabs as comments. Select "correction" instead!