Oops, an error
Loading. Please wait.

Reflect The Storm Tab

version 1
version 1

Whole song

Interactive

5,892 views 6 this week
6 commentsread comments
1 2 3 4 5
accurate
x 7
add to favorites
launch autoscroll
font size
0
reset
how to read this tab
guitar tuner
Tab Pro tools
  • play this tab
  • loop segment
  • change instrument
  • show fretboard
  • metronome
×
Best way to learn
"Reflect The Storm"
Autoscroll
slow
fast
+/-
esc
set tempo
stop
Contributor
Tabed by iowa294
band In flames
song reflect the storm intro

tunning A# F A# D# G# C drop A#


|--------------|
|--------5h6p5-|
|--------------|  repeat a couple of times play 2 times then play
|-0-0-0--------|
|--------------|
|--------------|

|--------------|
|--------------|     < this  once then play the intro again
|--------5h6---|
|--------------|
|--0-0-0-------|
|--------------|
verse
|------------------------------------------------------------------------------------------------------|
|------------------------------------------------------------------------------------------------------|  2X
|-----------------7-7-------8---                                            |-0-0---12-12-0-0-----0-0--|
|------------------------------------------------------------------------------------------------------|
|------------------------------------------------------------------------------------------------------|
verse 2
|------------------------------|
|------------------------------|  2X   10 are tens
|------------------------------|
|-0-0-12-12-0-0-10-10-0-0-13---|
|------------------------------|
|------------------------------|

  pre chorus
|-------------------------------|
|-------------------------------|
|----------111111-12-14-14-14---|
|-777--777-x-x--x-x--x---x-x----|
|-777--777-9-9--9-10-12-12-12---|
|-777--777----------------------|

2nd pre chorus
|----------------------------------|
|----------------------------------|
|----------14-14-14-15-17-17-17----|
|-555--555-x--x--x--x--x--x--x-----|
|-555--555-12-12-12-13-15-15-15----|
|-555--555-------------------------|

chorus
|---------------------------------|
|-33333---------------------------|
|-22222---------------------------| 2x
|-00000--22222-5555---------------|
|-00000--22222-5555--9-7-5-7-5----|
|-00000--22222-5555---------------|

play  verse 1 2x then verse 2 then the chorus andthen the intro i dont have the solo  
i will try to get it, thats it its not 100% plz tell me how i can make it better
comments
print report bad tab
6 comments total. Showing first comments.
0 reply
iowa294 wrote on February 20 2006, 04:48 pm

it should be played like this

|-------------------------------
|------------------------------- 2X
|-----------------7-7-------8--- |-0-0---12-12-0-0-----0-0-------
|-------------------------------
|-------------------------------
and palm mute the 0

0 reply
iowa294 wrote on February 20 2006, 04:50 pm


|--------------------------------
|--------------------------------
|---------------------7-7----8---
|-0-0---12-12-12-0-0------0-0----
|--------------------------------
|--------------------------------

0 reply
power_gamer_6 wrote on February 25 2006, 10:10 pm

It's pretty fair. Not that accurate. Plus you're missing the solo, and you're aware of that. So it's a nice attempt.

I want to post or [tab]
guest
You may want to rate the tab now too:
select rating
Please do not post tabs as comments. Select "correction" instead!