Oops, an error
Loading. Please wait.

Reflect The Storm Tab

version 2
version 2

Whole song

Interactive

5,232 views 1 this week
3 commentsread comments
1 2 3 4 5
1 last vote to show rating
add to favorites
launch autoscroll
font size
0
reset
how to read this tab
guitar tuner
Autoscroll
slow
fast
+/-
esc
set tempo
stop
Help us to improve Ultimate-Guitar.com Take our survey!
×
Author
Tuning
D A D G B E
My first tab and here is what i've got so far, its not complete, but its very accurate.

Intro:

E|-------------------------------|
B|-------------------------------|
G|-------------------------------|
D|-----9-10-9-7------9-10-9-7----|    play 9 times
A|-------------------------------|
D|-7-7-----------7-7-------------|

Verse: (played quickly)
Riff 1
E|---------------------|
B|---------------------|
G|---------------------|
D|----10-10---9-9---10-|  play 2 times
A|---------------------|
D|-77---7---77-7--77---|

Riff 2
E|----------------------|
B|----------------------|
G|----------------------|
D|----12-12---11-11--12-|  play 2 times
A|----------------------|
D|-99---9--99-9--99-----|

Riff 3
E|----------------------------|
B|----------------------------|
G|----------------------------|
D|-----15--15----14-14-----15-|  play 2 times
A|----------------------------|
D|-1212--12--1212--12--1212---|

Then back to riff one, and play thorugh it all once again
Thats all i have so far, but its better than nothing, i'll have the rest soon
Suggest correction
Give kudos to tab author, rate the tab!
1 2 3 4 5
comments
print report bad tab
3 comments total.
0 reply
Kreuger 792 Jun 04, 2006 08:12 PM

They've never used Drop D tunings. I don't think anything more than C.

0 reply
Def 41 Sep 07, 2006 09:01 AM

um, this seems way way off.

0 reply
mutehero 10 Mar 26, 2008 12:15 PM

Gah, so many in Drop D. From Come Clarity onwards, In Flames have tuned to Drop A#.

guest
You may want to rate the tab now too:
select rating
Wanna post a correction for this tab? Suggest correction