Oops, an error
Loading. Please wait.

Reflect The Storm Tab

version 3
version 3

Whole song

Interactive

15,426 views 9 this week
4 commentsread comments
1 2 3 4 5
excellent!
x 2
add to favorites
launch autoscroll
font size
0
reset
how to read this tab
guitar tuner
Tab Pro tools
  • play this tab
  • loop segment
  • change instrument
  • show fretboard
  • metronome
Autoscroll
slow
fast
+/-
esc
set tempo
stop
Contributor
Difficulty
novice
Part A (Intro)

    PM--------------------------------------------------------------|
||----------------------------------|-----------------------------------||
||o-------6-----------6-----------6-|-------6-----------6-----------6--o||
||------9---9-------9---9-------9---|-----9---9-------9---9-------9-----||
||----7-------7---7-------7---7-----|---7-------7---7-------7---7-------||
||o-5-----------5-----------5-------|-5-----------5-----------5--------o||
||----------------------------------|-----------------------------------||



Part B (Verse)

    PM|   PM  PM--|   PM  PM--|   PM----|   PM  PM--|   PM  PM--|   PM
||----------------------------------|----------------------------------|
||o-----8---8-------7---7-------8---|-----8---8-------7---7-------8----|
||----------------------------------|----------------------------------|
||----9---9---9---9---9---9---9---9-|---9---9---9---9---9---9---9---9--|
||o-7-----------7-----------7-------|-7-----------7-----------7--------|
||----------------------------------|----------------------------------|
|
|   PM|   PM  PM--|   PM  PM--|   PM----|   PM  PM--|   PM  PM--|   PM
||----------------------------------|----------------------------------|
||o---------------------------------|----------------------------------|
||------9---9-------7---7-------9---|-----9---9-------7---7-------9----|
||----9---9---9---9---9---9---9---9-|---9---9---9---9---9---9---9---9--|
||o-7-----------7-----------7-------|-7-----------7-----------7--------|
||----------------------------------|----------------------------------|
|
|
|               PM|                   PM------------|
||----------------------------------|----------------------------------|
||o---------------------------------|----------------------------------|
||----------------------------------|----------------------------------|
||------------------------------0---|-----------------------------0----|
||o-2-----------2-2-------------0---|-2-2---------2-2-------------0----|
||--0-----------0-0-----------------|-0-0---------0-0------------------|
  \---------------------------------/
=> Do not play these notes of Gtr. 3 at
        the beginning of the second verse (0:36-0:38)


   PM|      PM    PM---|      PM    PM---|      PM-
|-------------------------------------------------|
|-------12----12----------10----10----------13----|
|-------------------------------------------------|
|----12----12----12----12----12----12----12----12-|
|-10----------------10----------------10----------|
|-------------------------------------------------|
|
|  PM|      PM    PM---|      PM    PM---|      PM-
|-------------------------------------------------|
|-------------------------------------------10----|
|-------12----12----------11----11----------------|
|----12----12----12----12----12----12----12----12-|
|-10----------------10----------------10----------|
|-------------------------------------------------|
|
|  PM------------------|
|-------------------------------------------------|
|-------------------------------------------------|
|-------------------------------------------------|
|--------------------------------------------0----|
|--5--5--------------5--5--------------------0----|
|--3--3--------------3--3-------------------------|


 ----|      PM    PM---|      PM    PM---------|
|--------------------------------------------------||
|-------12----12----------10----10----------------o||
|-------------------------------------------12-----||
|----12----12----12----12----12----12----12----12--||
|-10----------------10----------------10----------o||
|--------------------------------------------------||
|
|----|      PM    PM---|      PM    PM---------|
|--------------------------------------------------||
|-------------------------------------------------o||
|-------12----12----------11----11----------12-----||
|----12----12----12----12----12----12----12----12--||
|-10----------------10----------------10----------o||
|--------------------------------------------------||
|
|  PM------------------|
|--------------------------------------------------||
|-------------------------------------------------o||
|--------------------------------------------------||
|--------------------------------------------0-----||
|--5--5--------------5--5--------------------0----o||
|--3--3--------------3--3--------------------------||



Part C (Pre-Chorus)

|--------------------------------|----------------------------------|
|--------------------------------|----------------------------------|
|--------------------------------|-5-5-5-5--5-5-5-------------------|
|-2-2-2-2--2-2-2-----------------|-5-5-5-5--5-5-5-------------------|
|-2-2-2-2--2-2-2-----------------|-3-3-3-3--3-3-3-------------------|
|-0-0-0-0--0-0-0-----------------|----------------------------------|
|
|--------------------------------|----------------------------------|
|--------------------------------|----------------------------------|
|----------4-4-4-4p2-2-2-2h4-4-4-|----------5-5-5-5p4-4-4-4h5-5-5---|
|--------------------------------|----------------------------------|
|--------------------------------|----------------------------------|
|--------------------------------|----------------------------------|
|
|--------------------------------|----------------------------------|
|--------------------------------|----------------------------------|
|--------------------------------|----------5-5-5-5h7-7-7-7h9-9-9---|
|----------2-2-2-2h4-4-4-4h5-5-5-|----------------------------------|
|--------------------------------|----------------------------------|
|--------------------------------|----------------------------------|



|--------------------------------|--------------------------|
|--------------------------------|--------------------------|
|--------------------------------|--7-7-7--7---7-7--7--5----|
|-5-5-5-5--5-5-5-----------------|--7-7-7--7---7-7--7--5----|
|-5-5-5-5--5-5-5-----------------|--5-5-5--5---5-5--5--3----|
|-3-3-3-3--3-3-3-----------------|--------------------------|
|
|                                   ~~                 ~~
|--------------------------------|--------------------------|
|--------------------------------|--------------------------|
|--------------------------------|--------14--16---14-12----|
|----------5-5-5-5p4-4-4-4h5-5-5-|-12-----------------------|
|--------------------------------|--------------------------|
|--------------------------------|--------------------------|
|
|                                   ~~                 ~~
|--------------------------------|--------------------------|
|--------------------------------|--------------------------|
|--------------------------------|--------------------------|
|----------5-5-5-5h7-7-7-7h9-9-9-|-12-----12--17---16-14----|
|--------------------------------|--------------------------|
|--------------------------------|--------------------------|
				  \-------------------------/
=> these notes of the two lead guitars are
only played the first time(0:34-0:36).
	The next times it is played like this:

	|--------------------------||
	|-------------------------o||
	|-7-7-7-7--7-7-7-5---------||
	|-7-7-7-7--7-7-7-5---------||
	|-5-5-5-5--5-5-5-3--------o||
	|--------------------------||
	|
	|               ~~~~~~~~~~
	|--------------------------||
	|-------------------------o||
	|--------------------------||
	|---------------14---------||
	|-------------------------o||
	|--------------------------||

Repeat:

1xPart B <= mention the note!!
2xPart C <= another note to remember!!



Part D (Chorus)

     ~~               ~               ~~~~~~~~~~~~~~~~~~~~~~~   ~~~~~~
||------------------|---------------|------------------|-----------------||
||o------------8----|---------------|------------------|----------------o||
||----------9-------|---------------|------------------|-----------------||
||------------------|---------------|------------------|---4---/5-4------||
||o--7--------------|-2---2-3-------|------------------|-5---5------5---o||
||------------------|---------3-0---|-3----------------|-----------------||
|
|                               PM|                PM|
||------------------|---------------|------------------|-----------------||
||o-----------------|---------------|------------------|----------------o||
||------------------|-4-------------|------------------|-7---------------||
||---2--------------|-4-------------|-5----------------|-7---------------||
||o--2--------------|-2---------2-2-|-5------------3-3-|-5--------------o||
||---0--------------|---------------|-3----------------|-----------------||
|
|    ~~     ~~~~~~~~~~~~                     ~     ~     ~
||------------------|---------------|--------7-5-3-5-3-|-2---------------||
||o-/8-7------------|---------------|----8-8-8-7-5-7-5-|-3--------------o||
||-------9-(9)------|-7-------------|------------------|-----------------||
||------------------|---------------|------------------|-----------------||
||o-----------------|---------------|------------------|----------------o||
||------------------|---------------|------------------|-----------------||
| => the harmonic notes are played by another guitar
| ~~~~~~~~~~~~~~~~~~~~~~~~~~~~~~~~~~~~~~~~~~~~~~~~~~~~~~~~~~~~~~~~~~~~~
||------------------|---------------|------------------|-----------------||
||o--8--------------|---------------|-12---------------|----------------o||
||------------------|-7-------------|------------------|-14--------------||
||---5--------------|---------------|-9----------------|-----------------||
||o-----------------|-5-------------|------------------|-12-------------o||
||------------------|---------------|------------------|-----------------||


Repeat:

1xPart B
2xPart D
1xPart A


Part E (Solo pt.1)

|-----------------------|-------------------------|
|-----------------------|-------------------------|
|-----------------------|-------------------------|
|--2-2-2-2--2-2-2-------|--2-2-2-2--2-2-2---------|
|--2-2-2-2--2-2-2-------|--2-2-2-2--2-2-2---------|
|--0-0-0-0--0-0-0-------|--0-0-0-0--0-0-0---------|
|
|  ~~~~~~~~~~~~~~~~~~~~~~~~~~~~~~~~~~~~~~~~~~~~~~~~
|-----------------------|-------------------------|
|-----------------------|-------------------------|
|-/9--------------11----|-12--------------14--16--|
|-----------------------|-------------------------|
|-----------------------|-------------------------|
|-----------------------|-------------------------|
|
|  ~~~~~~~~~~~~~~~~~~~~~~~~~~~~~~~~~~~~~~~~~~~~~~~~
|-----------------------|-------------------------|
|-----------------------|-------------------------|
|-/9--------------11----|-------------------------|
|-----------------------|-14--------------16--17--|
|-----------------------|-------------------------|
|-----------------------|-------------------------|


|-------------------------------|--------------------------|
|-------------------------------|--------------------------|
|-------------------------------|---7-7-7-7--7--7--7--5----|
|---5-5-5-5--5--5--5------------|---7-7-7-7--7--7--7--5----|
|---5-5-5-5--5--5--5------------|---5-5-5-5--5--5--5--3----|
|---3-3-3-3--3--3--3------------|--------------------------|
|
|~~~~~                ~~            ~~~               ~~
|-------------------------------|--------------------------|
|-/13----------12p10h12---15-17-|-/19----------17p15-------|
|-------------------------------|--------------------12----|
|-------------------------------|--------------------------|
|-------------------------------|--------------------------|
|-------------------------------|--------------------------|
|
|~~~~~                ~~            ~~~               ~~
|-------------------------------|--------------------------|
|-------------------------------|--------------------------|
|-/14----------12p11h12---16-17-|-/19----------17p16-------|
|-------------------------------|--------------------14----|
|-------------------------------|--------------------------|
|-------------------------------|--------------------------|


Part F (Solo pt.2)

|---------------|------------------------|
|---------------|------------------------|
|---------------|--5--5--5---------------|
|--7-7-7--7-7-7-|--5--5--5-------5--5--5-|
|--7-7-7--7-7-7-|--3--3--3-------5--5--5-|
|--5-5-5--5-5-5-|----------------3--3--3-|
|
|  ~~  ~~~~~       ~~            ~
|---------------|------------------------|
|---------------|------------------------|
|----9---10-9-7-|--9-10--9h10p=9-7-------|
|-/7---7--------|------------------10--9-|
|---------------|------------------------|
|---------------|------------------------|
|
|  ~~  ~~~~~       ~~            ~
|---------------|------------------------|
|---------------|------------------------|
|----5----7-5-4-|------------------------|
|-/7---7--------|-10-12-10h12p10-9--7----|
|---------------|---------------------10-|
|---------------|------------------------|


|--------------------|--------------------------|
|--------------------|--------------------------|
|---7-7-7---7---7--7-|---5--5-5-----------------|
|---7-7-7---7---7--7-|---5--5-5-------5--5-5----|
|---5-5-5---5---5--5-|---3--3-3-------5--5-5----|
|--------------------|----------------3--3-3----|
|
|   ~~~         ~        ~~~          ~~
|--------------------|--------------------------|
|--------------------|--------------------------|
|---------------5--7-|--/9--7-5h=7p5--4---------|
|--/7------(7)\------|-------------------7-5----|
|--------------------|--------------------------|
|--------------------|--------------------------|
|
|   ~~~         ~        ~~~          ~~
|--------------------|--------------------------|
|--------------------|--------------------------|
|---------------9-10-|-/12-10-9h10p9------------|
|-/12-----(12)\------|---------------12-10-9----|
|--------------------|--------------------------|
|--------------------|--------------------------|


Repeat:

2xPart C <= and again our note!!
3xPart D

In the last repeat of the chorus another two harmonic guitars are
played (3:48-4:07)
(in flames like to put as much harmony to their songs as possible
just to tease the tabbers):

                                        PM|
||---------------------|--------------------|
||o--------------------|--------------------|
||---------------------|-4------------------|
||---2-----------------|-4------------------|
||o--2-----------------|-2--------------2-2-|
||---0-----------------|--------------------|
|
|     ~~~          ~~~~~~~~~~          ~~~~~~
||---------------------|--------------------|
||o--------------------|--------------------|
||--/12---(12)\----9---|-/11-----(11)\-7----|
||---------------------|--------------------|
||o--------------------|--------------------|
||---------------------|--------------------|
|
|
||---------------------|--------------------|
||o--------------------|--------------12-13-|
||---------------------|--------------------|
||---------------------|--------------------|
||---------------------|--------------------|
||---------------------|--------------------|


|-----------------------|------------------||
|-----------------------|-----------------o||
|-----------------------|-7----------------||
|-5---------------------|-7----------------||
|-5-----------------3-3-|-5---------------o||
|-3---------------------|------------------||
|
|~~~~~~~~~~~~~~~~~~~~~~~~~~~~~~~~~~~~~~~~~~
|-----------------------|------------------||
|-----------------------|-----------------o||
|--7--------/12---------|-11-------/14-----||
|-----------------------|------------------||
|-----------------------|------------------||
|-----------------------|------------------||
|
|
|-----------------------|------------------||
|-15---12-13-15---12-13-|-15--13-12-------o|| => these notes
|-----------------------|------------------|| only the last time
|-----------------------|------------------||
|-----------------------|-----------------o||
|-----------------------|------------------||


Tablature Legend
----------------
 h   - hammer-on
 p   - pull-off
 /\  - slide into or out of
 ~   - vibrato
 PM  - palm muting
 =   - connecting device for hammers/pulls


Misc Legend
-----------
 |  - bar
||  - double bar
||o - repeat start
o|| - repeat end
comments
We did not receive enough feedback on this tab! Please rate:
print report bad tab
1 2 3 4 5
4 comments total. Showing first comments.
0 reply
$rabbit$ wrote on September 28 2008, 11:23 am

dude what is the tuning???

+1 reply
Ibanez_K7-rockz wrote on February 4 2009, 02:44 pm

i think IN FLAMES Standard tuning: Drop Bb

0 reply
TatarSalad2 wrote on April 17 2009, 07:14 pm

This is tabbed in C standard, I'm pretty sure. CFA#D#GC. But it can be played in Drop A# A#FA#D#GC but the notes on the low E need to be moved up two frets.

I want to post or [tab]
guest
You may want to rate the tab now too:
select rating
Please do not post tabs as comments. Select "correction" instead!