Oops, an error
Loading. Please wait.

Reflect The Storm Tab

version 4
version 4

Whole song

Interactive

6,467 views 1 this week
3 commentsread comments
1 2 3 4 5
please rate
add to favorites
launch autoscroll
font size
0
reset
how to read this tab
guitar tuner
Tab Pro tools
  • play this tab
  • loop segment
  • change instrument
  • show fretboard
  • metronome
×
Best way to learn
"Reflect The Storm"
Autoscroll
slow
fast
+/-
esc
set tempo
stop
Contributor
Difficulty
intermediate
IN FLAMES – REFLECT STORM

Intro
D||----------------------------|-----------------------------|
A||--------3h--4p--3-----------|--3h--4p--3-----------3h--4--|
F||--5-------------------5-----|----------------5------------| X4
C||-----5-------------5-----5--|-------------5-----5---------|
G||----------------------------|-----------------------------|
C||----------------------------|-----------------------------|

Verse
--------------------------|--------------------------|
--------------------------|--------------------------|
--------7-----7-----------|--7-----7-----------7-----|
-----7-----7-----7-----7--|-----7-----7-----7-----7--|
--5-----------------5-----|--------------5-----------|
--------------------------|--------------------------|
                          |                          | X2
--------------------------|--------------------------|
--------6-----6-----------|--5-----5-----------6-----|
--------------------------|--------------------------|
-----7-----7-----7-----7--|-----7-----7-----7-----7--|
--5-----------------5-----|--------------5-----------|
--------------------------|--------------------------|

--------------------------------|---------------------------------|
--------------------------------|---------------------------------|
---------10------10-------------|--10------10-------------10------|
-----10------10------10-----10--|------10------10-----10------10--|
--8----------------------8------|------------------8--------------|
--------------------------------|---------------------------------|
                                |                                 | X2(First time:11 Second time:10)
--------------------------------|---------------------------------|
---------10------10-------------|--8------8-------------11*-------|
--------------------------------|---------------------------------|
-----10------10------10-----10--|-----10-----10-----10------10----|
--8----------------------8------|----------------8----------------|
--------------------------------|---------------------------------|

Play the verse for 2 times.

Pre-Chorus
--------------------------|----------------------------|
--------------------------|----------------------------|
--------------------------|----------------------------|
--0--0--0--0-----0--0--0--|--3s--5--5--5--5S--7--7--7--|
--------------------------|----------------------------|
--------------------------|----------------------------|
                          |                            |
--------------------------|----------------------------|
--------------------------|----------------------------|
--------------------------|----------------------------|
--0--0--0--0-----0--0--0--|----------------------------|
--0--0--0--0-----0--0--0--|--5s--7--7--7--7S--8--8--8--|
--0--0--0--0-----0--0--0--|----------------------------|

--------------------------|----------------------------|
--------------------------|----------------------------|
--------------------------|----------------------------|
--8--8--8--8-----8--8--8--|--8s--7--7--7--7S--8--8--8--|
--------------------------|----------------------------|
--------------------------|----------------------------|
                          |                            |
--------------------------|----------------------------|
--------------------------|----------------------------|
--------------------------|--3s--5--5--5--5S--7--7--7--|
--8--8--8--8-----8--8--8--|----------------------------|
--8--8--8--8-----8--8--8--|----------------------------|
--8--8--8--8-----8--8--8--|----------------------------|

--------------------------|----------------------------|
--------------------------|----------------------------|
--------------------------|----------------------------|
--3--3--3--3-----3--3--3--|--3s--2--2--2--2S--3--3--3--|
--------------------------|----------------------------|
--------------------------|----------------------------|
                          |                            |
--------------------------|----------------------------|
--------------------------|----------------------------|
--------------------------|----------------------------|
--3--3--3--3-----3--3--3--|--7s--5--5--5--5S--7--7--7--|
--3--3--3--3-----3--3--3--|----------------------------|
--3--3--3--3-----3--3--3--|----------------------------|


---------------------------------|-------------------|
---------------------10*---------|-------------------|
--------------12*----------------|--10*~-------------|
--10--10--10--10----10--10--10---|--8~---------------| (*only the first Pre-Chorus)
---------------------------------|-------------------|
---------------------------------|-------------------|
                                 |                   |
---------------------------------|-------------------|
---------------------------------|-------------------|
---------------------------------|-------------------|
--10--10--10--10-----10--10--10--|--8----------------|
--10--10--10--10-----10--10--10--|--8----------------|
--10--10--10--10-----10--10--10--|--8----------------|


[Verse]X2

[Pre-Chorus]X2 (Don’t play the *signed notes)

Chorus X2
--------------------|-----|-----------------|----------------|---------------|--3----1----0br--|---|
--------------------|-----|-----------------|----------------|---------------|-----------------|---|
----10----9---------|-----|------------2----|------------3---|---------------|-----------------|-0-|
-(0)----------------|-----|-------2---------|-------3--------|------------3--|-----------------|---|
-(0)----------12----|--L--|--0--------------|--1-------------|-------3-------|-----------------|---|
-(0)----------------|-----|-----------------|----------------|--3------------|-----------------|---|
                                                                             |                 |   | 
                                                                             |-----------------|---|
                                                                             |--7----5----3----|---|
                                                                             |-----------------|-2-|
                                                                             |-----------------|---|
                                                                             |-----------------|---|
                                                                             |-----------------|---|


[Verse] X2

[Chorus] X4

[Intro] X4

Solo (*second guitar notes)
-------|-------|--------|---------------|------------------|-----------13--15--|
-------|-------|-*12~---|-*13~---*15~---|-*15br-----*13~---|-*15~-----*17-*19--|
--7~---|--9~---|--10~---|--12~----14~---|--14br------12~---|--14~--------------|
-------|-------|--------|---------------|------------------|-------------------|
-------|-------|--------|---------------|------------------|-------------------|
-------|-------|--------|---------------|------------------|-------------------|

--17~-------13--12--|------------|---------------------|
-*20~------*17-*15--|--13~-------|---------------------|
--------------------|-*16~-------|---------3-----------|
--------------------|------------|--5-------------5----|
--------------------|------------|---------------------|
--------------------|------------|---------------------|

---------------------|---------------------------|---------------------|
---------------------|-*5-----*6-----*5--*6--*5--|-*3------------------|
--5------3------2----|--3------5------3h--5p--3--|--2-----*5-----*4----|
---------------------|---------------------------|---------5------3----|
---------------------|---------------------------|---------------------|
---------------------|---------------------------|---------------------|

--------------------|---------------------|-------------------------|
--------------------|---------------------|-------------------------|
--------------------|---------3------5----|--7------5------3--5--3--|
--5~----------------|--L-----*7-----*9----|*10-----*9-----*7-*9-*7--|
-*5~----------------|---------------------|-------------------------|
--------------------|---------------------|-------------------------|


---------------------|
-*0------------------|
--2-----*2-----*0----|
---------5------3----|
---------------------|
---------------------|

Rhythm solo
--------------------------|-----|--------------------------|-----|
--------------------------|-----|--------------------------|-----|
--------------------------|-----|--------------------------|-----|
--0--0--0--0-----0--0--0--|-----|--0--0--0--0-----0--0--0--|-----|
--0--0--0--0-----0--0--0--|-----|--0--0--0--0-----0--0--0--|-----|
--0--0--0--0-----0--0--0--|-----|--0--0--0--0-----0--0--0--|-----|

--------------------------|-----|---------------------------------|
--------------------------|-----|---------------------------------|
--------------------------|-----|---------------------------------|
--3--3--3--3-----3--3--3--|-----|--10--10--10--10-----10--10--10--|
--3--3--3--3-----3--3--3--|-----|--10--10--10--10-----10--10--10--|
--3--3--3--3-----3--3--3--|-----|--10--10--10--10-----10--10--10--|

-------------------|---------------------|---------------------|
-------------------|---------------------|---------------------|
-------------------|---------------------|---------------------|
--8----------------|--5------5------5----|--5------5------5----|
--8----------------|--5------5------5----|--5------5------5----|
--8----------------|--5------5------5----|--5------5------5----|

---------------------|---------------------|---------------------|
---------------------|---------------------|---------------------|
---------------------|---------------------|--5------5------5----|
--1------1------1----|--3------3------3----|--5------5------5----|
--1------1------1----|--3------3------3----|--3------3------3----|
--1------1------1----|--3------3------3----|---------------------|

---------------------|---------------------|---------------------|
---------------------|---------------------|---------------------|
--5------5------5----|---------------------|---------------------|
--5------5------5----|--1------1------1----|--3------3------3----|
--3------3------3----|--1------1------1----|--3------3------3----|
---------------------|--1------1------1----|--3------3------3----|

[Pre-Chorus] X2

[Chorus] X6
comments
We did not receive enough feedback on this tab! Please rate:
print report bad tab
1 2 3 4 5
3 comments total.
0 reply
Kreuger wrote on January 17 2008, 07:20 pm

The tuning is a step too high

0 reply
Ibanez_K7-rockz wrote on January 31 2009, 04:25 pm

it's drop A#
C Tuning and The "E" string one step down again

0 reply
samwisegamgee wrote on April 8 2010, 02:14 pm

what does the l in the chorus mean

I want to post or [tab]
guest
You may want to rate the tab now too:
select rating
Please do not post tabs as comments. Select "correction" instead!