Oops, an error
Loading. Please wait.

Ropes Tab

version 1
version 1

Intro

Interactive

14,854 views 9 this week
no commentswrite comment
1 2 3 4 5
x 8
add to favorites
launch autoscroll
font size
0
reset
how to read this tab
guitar tuner
Autoscroll
slow
fast
+/-
esc
set tempo
stop
Help us to improve Ultimate-Guitar.com Take our survey!
×
Author
Difficulty
Tuning
novice
A# F A# D# G C
                               Ropes Intro Lead                                 


                                                                       In Flames
Guitar



             PM    PM PM  PM           PM     PM                 
      E   E  E  E  E  E   E  E      E  E   E  E   E   E   E  E   
C ||----------------------------|--10---------------------------|
G ||-----10-----8------------8--|---------10--------------------|
D#||--7------7-----7--9--10-----|------7------7--10p--9------7--|
A#||----------------------------|------------------------10-----|
F ||----------------------------|-------------------------------|
A#||----------------------------|-------------------------------|


         PM    PM PM  PM           PM     PM                 
  E   E  E  E  E  E   E  E      E  E   E  E   E   E   E  E   
----------------------------|--10---------------------------|
-----10-----8------------8--|---------10--------------------|
--L------7-----7--9--10-----|------7------7--10p--9------7--|
----------------------------|------------------------10-----|
----------------------------|-------------------------------|
----------------------------|-------------------------------|


         PM    PM PM  PM           PM     PM                 
  E   E  E  E  E  E   E  E      E  E   E  E   E   E   E  E   
----------------------------|--10---------------------------|
-----10-----8------------8--|---------10--------------------|
--L------7-----7--9--10-----|------7------7--10p--9------7--|
----------------------------|------------------------10-----|
----------------------------|-------------------------------|
----------------------------|-------------------------------|


         PM    PM PM  PM           PM     PM                 
  E   E  E  E  E  E   E  E      E  E   E  E   E   E   E  E   
----------------------------|--10---------------------------|
-----10-----8------------8--|---------10--------------------|
--L------7-----7--9--10-----|------7------7--10p--9------5--|
----------------------------|------------------------10-----|
----------------------------|-------------------------------|
----------------------------|-------------------------------|


        PM    PM PM             PM    PM            PM     
                                         |---3---|         
  E  E  E  E  E  E  E  E     E  E  E  E  E   E   E  E  E   
--------------------------|-------------------------------|
-----6-----5--------5--6--|--8-----6-----5h--6p--5--------|
--L-----5-----5--7--------|-----5-----5-------------7--5--|
--------------------------|-------------------------------|
--------------------------|-------------------------------|
--------------------------|-------------------------------|


        PM    PM PM             PM    PM                   
                                         |---3---|         
  E  E  E  E  E  E  E  E     E  E  E  E  E   E   E  E  E   
--------------------------|-------------------------------|
-----6-----5--------5--6--|--8-----6-----5h--6p--5--------|
--L-----5-----5--7--------|-----5-----5-------------5--7--|
--------------------------|-------------------------------|
--------------------------|-------------------------------|
--------------------------|-------------------------------|


         PM    PM PM  PM           PM     PM                 
  E   E  E  E  E  E   E  E      E  E   E  E   E   E   E  E   
----------------------------|--10---------------------------|
-----10-----8------------8--|---------10--------------------|
--L------7-----7--9--10-----|------7------7--10p--9------7--|
----------------------------|------------------------10-----|
----------------------------|-------------------------------|
----------------------------|-------------------------------|


         PM    PM PM  PM           PM     PM                  
  E   E  E  E  E  E   E  E      E  E   E  E   E   E   E  E    
----------------------------|--10---------------------------||
-----10-----8------------8--|---------10--------------------||
--L------7-----7--9--10-----|------7------7--10p--9------7--||
----------------------------|------------------------10-----||
----------------------------|-------------------------------||
----------------------------|-------------------------------||




Duration Legend
---------------
E - 8th
L - Tie note from last bar
Suggest correction
comments
print report bad tab
guest
You may want to rate the tab now too:
select rating
Wanna post a correction for this tab? Suggest correction