Oops, an error
Loading. Please wait.

Scream Tab

version 2
version 2

Whole song

Interactive

5,685 views 3 this week
3 commentsread comments
1 2 3 4 5
x 5
add to favorites
launch autoscroll
font size
0
reset
how to read this tab
guitar tuner
Autoscroll
slow
fast
+/-
esc
set tempo
stop
Help us to improve Ultimate-Guitar.com Take our survey!
×
Author
Difficulty
intermediate
______________________________________________

Intro						
						
Giutar 1					
|--------|--------|--------|--------|--------|	
|--------|--------|--------|--------|--------|	
|--------|--------|--------|--------|--------|	
|--------|--------|--------|--------|--------|	
|--------|--------|--------|--------|--------|	
|17\-----|000-0-0-|000-0-0-|0-555-5-|7b8-8~--|	
              . .      . .  . ... .		
|--------|--------|--------|--------|		
|--------|--------|--------|--------|		
|--------|--------|--------|--------|		
|--------|--------|--------|--------|		
|--------|--------|--------|----8~--|		
|000-0-0-|000-0-0-|0-555-5-|7b8-----|		
     . .      . .  . ... .			
|--------|--------|--------|--------|		
|--------|--------|--------|--------|		
|--------|--------|--------|--------|		
|--------|--------|--------|--------|		
|--------|--------|--------|--------|		
|000-0-0-|000-0-0-|0-555-5-|7b8-8~--|		
     . .      . .  . ... .			

|--------|--------|--------|--------|
|--------|--------|--------|--------|		
|--------|--------|--------|--------|		
|--------|--------|--------|3-2-----|		
|--------|--------|--3-2-0-|1-0-3-5-|		
|000-0-0-|000-0-0-|0-3-2-0-|----3-5-|		
     . .      . .  . . . .			
						
Guitar 2					
|--------|--------|--------|--------|		
|--------|--------|--------|--------|		
|--------|--------|--------|--------|		
|--------|--------|--------|3-2-----|		
|--------|--------|--3-2-0-|1-0-3-5-|		
|--------|--------|--3-2-0-|----3-5-|		
                     . . .			
_____________________________________


Guitar 1

|--------|--------|--------|--------|
|--------|--------|--------|--------|
|--------|--------|--------|--------|
|--------|--------|--------|--------|
|--------|--------|--------|--------|
|000-0-0-|000-0-0-|0-555-5-|7b8-8~--|
     . .      . .  . ... .

|--------|--------|--------|--------|
|--------|--------|--------|--------|
|--------|--------|--------|--------|
|--------|--------|--------|--------|
|--------|--------|--------|----8~--|
|000-0-0-|000-0-0-|0-555-5-|7b8-----|
     . .      . .  . ... .

|--------|--------|--------|--------|
|--------|--------|--------|--------|
|--------|--------|--------|--------|
|--------|--------|--------|--------|
|--------|--------|--------|--------|
|000-0-0-|000-0-0-|0-555-5-|7b8-8~--|
     . .      . .  . ... .

|--------|--------|--------|--------|
|--------|--------|--------|--------|
|--------|--------|--------|--------|
|--------|--------|--------|3-2-----|
|--------|--------|--3-2-0-|1-0-3-5-|
|000-0-0-|000-0-0-|0-3-2-0-|----3-5-|
     . .      . .  . . . .

|--------|--------|--------|--------|
|--------|--------|--------|--------|
|--------|--------|--------|--------|
|--------|--------|--------|--------|
|--------|--------|--------|--------|
|000-0-0-|000-0-0-|0-555-5-|7b8-8~--|
     . .      . .  . ... .

|--------|--------|--------|--------|
|--------|--------|--------|--------|
|--------|--------|--------|--------|
|--------|--------|--------|--------|
|--------|--------|--------|----8~--|
|000-0-0-|000-0-0-|0-555-5-|7b8-----|
     . .      . .  . ... .

|--------|--------|--------|--------|
|--------|--------|--------|--------|
|--------|--------|--------|--------|
|--------|--------|--------|--------|
|--------|--------|--------|--------|
|000-0-0-|000-0-0-|0-555-5-|7b8-8~--|
     . .      . .  . ... .

|--------|--------|--------|--------|
|--------|--------|--------|--------|
|--------|--------|--8-----|8-8-8-8-|
|--------|--------|--x-----|x-x-x-x-|
|--------|--------|--6-----|6-6-6-6-|
|000-0-0-|000-0-0-|0---0-0-|--------|
     . .      . .  .   . .

|--------|--------|--------|--------|
|--------|--------|--------|--------|
|--------|--------|--------|--------|
|1-------|--------|1-------|--------|
|1---1-1-|1-1-1-1-|1-------|--------|
|1---1-1-|1-1-1-1-|1-------|--------|
     . .  . . . .

Guitar 2

|--------|--------|--------|--------|
|--------|--------|--------|--------|
|--------|--------|--------|--------|
|--------|--------|--------|--------|
|--------|--------|--------|--------|
|000-0-0-|000-0-0-|0-555-5-|10b1212~|
     . .      . .  . ... .

|--------|--------|--------|--------|
|--------|--------|--------|--------|
|--------|--------|--------|--------|
|--------|--------|--------|-----7~-|
|--------|--------|--------|--------|
|000-0-0-|000-0-0-|0-555-5-|10b12---|
     . .      . .  . ... .

|--------|--------|--------|--------|
|--------|--------|--------|--------|
|--------|--------|--------|--------|
|--------|--------|--------|--------|
|--------|--------|--------|--------|
|000-0-0-|000-0-0-|0-555-5-|10b1212~|
     . .      . .  . ... .

|--------|--------|--------|--------|
|--------|--------|--------|--------|
|--------|--------|--------|--------|
|--------|--------|--------|3-2-----|
|--------|--------|--3-2-0-|1-0-3-5-|
|000-0-0-|000-0-0-|0-3-2-0-|----3-5-|
     . .      . .  . . . .

|--------|--------|--------|--------|
|--------|--------|--------|--------|
|--------|--------|--------|--------|
|--------|--------|--------|--------|
|--------|--------|--------|--------|
|000-0-0-|000-0-0-|0-555-5-|10b1212~|
     . .      . .  . ... .

|--------|--------|--------|--------|
|--------|--------|--------|--------|
|--------|--------|--------|--------|
|--------|--------|--------|-----7~-|
|--------|--------|--------|--------|
|000-0-0-|000-0-0-|0-555-5-|10b12---|
     . .      . .  . ... .

|--------|--------|--------|--------|
|--------|--------|--------|--------|
|--------|--------|--------|--------|
|--------|--------|--------|--------|
|--------|--------|--------|--------|
|000-0-0-|000-0-0-|0-555-5-|10b1212~|
     . .      . .  . ... .

|--------|--------|--------|--------|
|--------|--------|--------|--------|
|--------|--------|--8-----|8-8-8-8-|
|--------|--------|--x-----|x-x-x-x-|
|--------|--------|--6-----|6-6-6-6-|
|000-0-0-|000-0-0-|0---0-0-|--------|
     . .      . .  .   . .

|--------|--------|--------|--------|
|--------|--------|--------|--------|
|--------|--------|--------|--------|
|1-------|--------|1-------|--------|
|1---1-1-|1-1-1-1-|1-------|--------|
|1---1-1-|1-1-1-1-|1-------|--------|
     . .  . . . .

_____________________________________

Thrash Bit

Guitar 1
|--------|--------|--------|--------| \
|--------|--------|--------|--------|  \
|--------|--------|--------|--------|   \
|------2-|------2-|------2-|----3-2-|    \
|--------|5---5---|--------|5-------|     \
|222-2---|--2-----|222-2---|--2-----|      \
 ... .      .      ... .      .             \
                                          Times 2
|--------|--------|--------|--------|       /
|--------|--------|--------|--------|      /
|--------|--------|--------|--------|     /
|------2-|------2-|--------|--------|    /
|--------|5---5---|--------|--------|   /
|222-2---|--2-----|555-555-|888-888-|  /
 ... .      .      ... ...  ... ...   /

|--------|--------|--------|--------| \
|--------|--------|--------|--------|  \
|--------|--------|--------|--------|   \
|--------|--------|-(T=10)-|--------|    \
|--------|--------|--------|--------|     \
|55555555|88887777|TTTTTTTT|88887777| Times 2 leaving out
                                       7 second on time
|--------|--------|--------|--------|  5
|--------|--------|--------|--------|     /
|--------|--------|--------|--------|    /
|--------|--------|--------|----7---|   /
|--------|--------|--------|----5---|  /
|55555555|88887777|444-444-|444-----| /
                   ... ...  ...
Guitar 2
|--------|--------|--------|--------| \
|--------|--------|--------|--------|  \
|--------|--------|--------|--------|   \
|------5-|4---4-5-|------5-|4---3-2-|    \
|--------|--------|--------|--------|     \
|222-2---|--2-----|222-2---|--2-----|      \
 ... .      .      ... .      .             \
                                          Times 2
|--------|--------|--------|--------|       /
|--------|--------|--------|--------|      /
|--------|--------|--------|--------|     /
|------5-|4---4-5-|--------|--------|    /
|--------|--------|--------|--------|   /
|222-2---|--2-----|555-555-|888-888-|  /
 ... .      .      ... ...  ... ...   /

|--------|--------|--------|--------| \
|--------|--------|--------|--------|  \
|--------|--------|--------|--------|   \
|--------|--------|--------|--------|    \
|11111111|55553333|66666666|55553333|     \
|--------|--------|--------|--------| Times 2 leaving out
                                       7 on second time
|--------|--------|--------|--------|  5
|--------|--------|--------|--------|     /
|--------|--------|--------|--------|    /
|--------|--------|--------|----7---|   /
|11111111|55553333|--------|----5---|  /
|--------|--------|444-444-|444-----| /
                   ... ...  ...
_____________________________________

Chorus (Minor changes throughout, so I tabbed it all)

Both Guitars
|--------|--------|--------|--------|
|--------|--------|--------|--------|
|--------|--------|--------|--------|
|8---7---|--0---0-|3-----3-|6-5-3-0-|
|6---5---|--0---0-|3-----3-|6-5-3-0-|
|--------|0-0---0-|3-----3-|6-5-3-0-|
          .

|--------|--------|--------|--------|
|--------|--------|--------|--------|
|--------|--------|--------|--------|
|/8---7--|--0---0-|3-----3-|6-5-3-0-|
|/6---5--|--0---0-|3-----3-|6-5-3-0-|
|--------|0-0---0-|3-----3-|6-5-3-0-|
          .                 . . . .

|--------|--------|--------|--------|
|--------|--------|--------|--------|
|--------|--------|--------|--------|
|/8---7--|--0---0-|3-----3-|6-5-3-0-|
|/6---5--|--0---0-|3-----3-|6-5-3-0-|
|--------|0-0---0-|3-----3-|6-5-3-0-|
          .

|--------|--------|--------|--------|
|--------|--------|--------|--------|
|--------|--------|--------|--------|
|/8---7--|--0---0-|3-------|6-5-3-0-|
|/6---5--|--0---0-|3-------|6-5-3-0-|
|--------|0-0---0-|3-------|6-5-3-0-|
          .                 . . . .

|--------|--------|--------|--------|
|--------|--------|--------|--------|
|--------|--------|--------|--------|
|8---7---|--0---0-|3-----3-|6-5-3-0-|
|6---5---|--0---0-|3-----3-|6-5-3-0-|
|--------|0-0---0-|3-----3-|6-5-3-0-|
          .

|--------|--------|--------|--------|
|--------|--------|--------|--------|
|--------|--------|--------|--------|
|/8---7--|--0---0-|3-----3-|6-5-3-0-|
|/6---5--|--0---0-|3-----3-|6-5-3-0-|
|--------|0-0---0-|3-----3-|6-5-3-0-|
          .                 . . . .

|--------|--------|--------|--------|
|--------|--------|--------|--------|
|--------|--------|--------|--------|
|/8---7--|--0---0-|3-----3-|6-5-3-0-|
|/6---5--|--0---0-|3-----3-|6-5-3-0-|
|--------|0-0---0-|3-----3-|6-5-3-0-|
          .

|--------|--------|--------|--------|
|--------|--------|--------|--------|
|--------|--------|--------|--------|
|/8---7--|--0---0-|3-----3-|6-5-3-0-|
|/6---5--|--0---0-|3-----3-|6-5-3-0-|
|--------|0-0---0-|3-----3-|6-5-3-0-|
          .
_____________________________________

Guitar 1
|--------|--------|--------|--------|		
|--------|--------|--------|--------|		
|--------|--------|--------|3-2-----|		
|--------|--------|--3-2-0-|1-0-3-5-|		
|000-0-0-|000-0-0-|0-3-2-0-|----3-5-|		
     . .      . .  . . . .			
						
Guitar 2					
|--------|--------|--------|--------|		
|--------|--------|--------|--------|		
|--------|--------|--------|--------|		
|--------|--------|--------|3-2-----|		
|--------|--------|--3-2-0-|1-0-3-5-|		
|--------|--------|--3-2-0-|----3-5-|		
                     . . .
_____________________________________

Repeat all of *Thrash Bit*
_____________________________________

Chorus

Both Guitars
|--------|--------|--------|--------|
|--------|--------|--------|--------|
|--------|--------|--------|--------|
|8---7---|--0---0-|3-----3-|6-5-3-0-|
|6---5---|--0---0-|3-----3-|6-5-3-0-|
|--------|0-0---0-|3-----3-|6-5-3-0-|
          .

|--------|--------|--------|--------|
|--------|--------|--------|--------|
|--------|--------|--------|--------|
|/8---7--|--0---0-|3-----3-|6-5-3-0-|
|/6---5--|--0---0-|3-----3-|6-5-3-0-|
|--------|0-0---0-|3-----3-|6-5-3-0-|
          .                 . . . .

|--------|--------|--------|--------|
|--------|--------|--------|--------|
|--------|--------|--------|--------|
|/8---7--|--0---0-|3-----3-|6-5-3-0-|
|/6---5--|--0---0-|3-----3-|6-5-3-0-|
|--------|0-0---0-|3-----3-|6-5-3-0-|
          .

|--------|--------|--------|--------|
|--------|--------|--------|--------|
|--------|--------|--------|--------|
|/8---7--|--0---0-|3-------|6-5-3-0-|
|/6---5--|--0---0-|3-------|6-5-3-0-|
|--------|0-0---0-|3-------|6-5-3-0-|
          .                 . . . .

|--------|--------|--------|--------|
|--------|--------|--------|--------|
|--------|--------|--------|--------|
|--------|0-----0-|3-----3-|6-5-3-0-|
|0-x-----|0-----0-|3-----3-|6-5-3-0-|
|0-x-----|0-----0-|3-----3-|6-5-3-0-|
 .

|--------|--------|--------|--------|
|--------|--------|--------|--------|
|--------|--------|--------|--------|
|/8---7--|--0---0-|3-----3-|6-5-3-0-|
|/6---5--|--0---0-|3-----3-|6-5-3-0-|
|--------|0-0---0-|3-----3-|6-5-3-0-|
          .                 . . . .

|--------|--------|--------|--------|
|--------|--------|--------|--------|
|--------|--------|--------|--------|
|/8---7--|--0---0-|3-----3-|6-5-3-0-|
|/6---5--|--0---0-|3-----3-|6-5-3-0-|
|--------|0-0---0-|3-----3-|6-5-3-0-|
          .

|--------|--------|--------|--------|
|--------|--------|--------|--------|
|--------|--------|--------|--------|
|/8---7--|--0---0-|3-----3-|6-5-3-0-|
|/6---5--|--0---0-|3-----3-|6-5-3-0-|
|--------|0-0---0-|3-----3-|6-5-3-0-|
          .
_____________________________________

Cool Funky Bit

Guitar 1
|--------|--------|--------|--------| \
|--------|--------|--------|--------|  \
|--------|--------|--------|--------|   \
|--------|--------|--------|--------| Times 2
|5-5---5-|5-5---5-|5-5---5-|--------|   /
|--------|--------|--------|6-5-3-0-|  /
 . .   .  . .   .  . .   .            /

|--------|--------|--------|--------| \
|--------|--------|--------|--------|  \
|--------|--------|--------|--------|   \ Times
|--------|--------|--------|--------|   /   4
|--------|--------|--------|--------|  /
|0-0---0-|0-0---0-|0-0---0-|6-5-3-0-| /

Guitar 2
|--------|--------|--------|--------| \
|--------|--------|--------|--------|  \
|--------|--------|--------|--------|   \ Times
|--------|--------|--------|--------|   /   2
|--------|--------|--------|--------|  /
|--------|--------|--------|6-5-3-0-| /

|--------|--------|--------|--------| \
|--------|--------|--------|--------|  \
|--------|--------|--------|--------|   \ Times
|--------|--------|--------|--------|   /   4
|--------|--------|--------|--------|  /
|0-0---0-|0-0---0-|0-0---0-|6-5-3-0-| /
Suggest correction
comments
print report bad tab
3 comments total.
+1 reply
Leef 36 Aug 25, 2008 02:28 PM

Whoa! Nice tab. A bit confusing that guitar 1 and 2 aren't parallel but rather in different sections.

Anyway, thanks and good job. :)

0 reply
_Xaos_ 10 Apr 25, 2009 08:16 PM

For all you guys that are wondering, this song is in Drop Bb!

0 reply
metalguitartabs 10 Aug 29, 2014 12:33 PM

Great tab mate, very accurate. Just a note; its played in Drop A# tuning.

guest
You may want to rate the tab now too:
select rating
Wanna post a correction for this tab? Suggest correction