Oops, an error
Loading. Please wait.

Suburban Me Bass Tab

version 1
version 1

Whole song

Interactive

714 views 1 this week
no commentswrite comment
1 2 3 4 5
3 more votes to show rating
add to favorites
launch autoscroll
font size
0
reset
guitar tuner
Autoscroll
slow
fast
+/-
esc
set tempo
stop
Help us to improve Ultimate-Guitar.com Take our survey!
×
"Suburban Me" - In Flames
From the album Clayman

Tabbed by Isthar

Tuning: D#|------|
        A#|------|
        F |------|
        C |------|

Guitar intro first

Intro
|----------------------------------------------------------------|
|----------------------------------------------------------------|
|-----2--2-2-22-22-2-2-22-20-0-0-00-0-----------2-2-22-22-2-214--|
|--0---------------------------------0-0-00-00-0-----------------| 

|------------------------------------------|
|------------------------------------------|
|--14-1414-1414-140-0-00-00-0--------------|
|----------------------------0-0-00-00-00--|

Verse 1
|---------------------------------------------------------------|
|---------------------------------------------------------------|
|--22-22-22-22-00-00-00-00-------------------------22-22-22-22--|
|--------------------------00-00-00-00-00-00-00-00--------------|

|-------------------------------------|
|-------------------------------------|
|--00-00-00-00----------5-5-5-0-0-00--|  x2
|--------------33-30-0-0--------------|

Chorus 1
|-------------------------------------------------------------------|
|-------------------------------------------------------------------| 
|---------------------------------------5-55------------------------|
|--2-22-22-20-0-00-00-02-2-22-22-24-4-4------2-22-22-20-2-22-22-24--|

|----------------------------------------------------------------|
|----------------------------------------------------------------|
|------5-5-5-----0-0-00-2-2-22-22-2-2-22-20-0-0-00-0----------2--|
|--4-4------3-3-3-----------------------------------0-0-0-00-0---|

|----------------------------------|
|----------------------------------|
|--2-2-22-20-0-0-00-0--------------|
|--------------------0-0-00-00-00--|

Verse 2
|-------------------------------------------------|
|-------------------------------------------------|
|--22-22-22-22-00-00-00-00-----------------3--54--|
|--------------------------00-00-00-00-00-0-20----|

|----------------------------------------------------------------|
|----------------------------------------------------------------|
|--22-22-22-22-00-00-00-00-----------5-5-5-0-00--2--00-00-00-00--|
|--------------------------33-3-0-0-0----------------------------|

|------------------------------------------------------------------------|
|------------------------------------------------------------------------|
|--------------------------22-22-22-22-00-00-00-00---------5-5-5-0-0-00--|
|--00-00-00-00-00-00-00-00-------------------------33-3-0-0--------------|

Chorus 2
|---------------------------------------------------------------------|
|---------------------------------------------------------------------|
|---------------------------------------5-5-55------------------------|
|--2-22-22-20-0-00-00-02-2-22-22-24-4-4--------2-22-22-20-0-00-00-02--|

|-----------------------------------------------| 
|-----------------------------------------------| 
|----------------5-5-5------0-0-00-0-----0--54--| 
|--2-22-22-24-4-4-----3-3-3---------0-0-3-20----| 

|---------------------------------------------------------------|
|---------------------------------------------------------------|
|--2-2-22-22-2-2-22-20-0-0-00-0----------2-2-2-22-22-2-2-22-20--|
|------------------------------0-0-0-00-0-----------------------| 

|------------------------------|
|------------------------------|
|--0-0-00-0--------------3-----|
|----------0-0-00-00-00-----0--| 

Solo part
|--------------------------------------------------------------|
|--------------------------------------------------------------|
|--55-55-55-5-517-1717-1717-1717-1717-3-3-33-3-----------------|
|---------------------------------------------0-0-120-120-120--| 

|-----------------------------------------------------------------|
|-----------------------------------------------------------------|
|--5-5-55-55--02357-3-3-33-32-2-22-22-22-0-0-00-05-5-175-175-175--|
|------------3----------------------------------------------------| 

|--------------------------------------------------------------------|
|--------------------------------------------------------------------|
|--3-3-33-3----------------5-5-55-55--02357-3-3-33-3-----------------|
|----------0-0-120-120-120-----------3--------------0-0-120-120-120--| 

|----------------------------|
|----------------------------|
|--5-5-55-55--02357-542-040--|
|------------3---------------| 

Chorus 3
|---------------------------------------------------------------------|
|---------------------------------------------------------------------|
|---------------------------------------5-5-55------------------------|
|--2-22-22-20-0-00-00-02-2-22-22-24-4-4--------2-22-22-20-0-00-00-02--| 

|-----------------------------------|
|-----------------------------------|
|-----------------5-5-5------0-0-0--|
|--2-22-22-24-4-4------3-3-3--------| 

|--R--|
|--E--|
|--S--|
|--T--| 

Outro
|------------------------------------------------------------------|
|------------------------------------------------------------------|
|-----2-2-22-22-2-2-22-20-0-0-00-0----------2-2-2-22-22-2-2-22-20--|
|--0------------------------------0-0-0-00-0-----------------------| 

|---------------------------------------------------------------------|
|---------------------------------------------------------------------|
|--0-0-00-0----0--54-2-2-22-22-2-2-22-20-0-0-00-0----------2-2-22-22--|
|----------0-03-20-------------------------------0-0-0-00-0-----------| 

|------------------------------------------|
|------------------------------------------|
|--2-2-22-20-0-0-00-00---------555-555--2--|
|----------------------333-333-------------|
Suggest correction
Give kudos to tab author, rate the tab!
1 2 3 4 5
comments
print report bad tab
guest
You may want to rate the tab now too:
select rating
Wanna post a correction for this tab? Suggest correction