Oops, an error
Loading. Please wait.

Take This Life Bass Tab

version 1
version 1
11,841 views 18 this week
12 commentsread comments
1 2 3 4 5
x 6
add to favorites
launch autoscroll
font size
0
reset
guitar tuner
Autoscroll
slow
fast
+/-
esc
set tempo
stop
Help us to improve Ultimate-Guitar.com Take our survey!
×
Author
Tuning
C G C F A D
Except for the intro, the '10's are tens not ones & veros!
Good luck bassists, & pleasse rate this tab! :D

Intro
F|-----------------------------------------------------------------|
C|-----------------------------------------------------------------|
G|-----------------------------------------------------------------|
C|-0-0-0-0-0-0-0-0-0-0-0-0-0-0-0-0-0-0-0-0-0-0-0-0-8-5-7-3-5-1-1-1-|

Verse
F|---------------------------------------------------------------|
C|---------------------------------------------------------------|
G|---------------------------------------------------------------|
C|-0000--0000--0000-0000--0000-0000-000-1010101010101010---------|

Pre-chorus
F|---------------------------------------------------------------|
C|---------------------------------------------------------------|
G|---------------------------------------------------------------|
C|-8888888888888888-10101010101010101010101010101010-------------|

F|---------------------------------------------------------------|
C|---------------------------------------------------------------|
G|---------------------------------------------------------------|
C|-121212121212121212121212-7777777777777777---------------------|

F|---------------------------------------------------------------|
C|---------------------------------------------------------------|
G|---------------------------------------------------------------|
C|-8888888888888888-10101010101010101010101010101010-------------|

F|---------------------------------------------------------------|
C|---------------------------------------------------------------|
G|---------------------------------------------------------------|
C|-121212121212121212121212-1010101010-1010-101010-10101010------|

Chorus
F|---------------------------------------------------------------|
C|---------------------------------------------------------------|
G|---------------------------------------------------------------|
C|-0000--0000-8888--8-8-10101010-10-10---------------------------|

F|---------------------------------------------------------------|
C|---------------------------------------------------------------|
G|---------------------------------------------------------------|
C|-0000--0000-8888--8-8-10101010107777---------------------------|


F|---------------------------------------------------------------|
C|---------------------------------------------------------------|
G|----------------------------8----------------------------------|
C|-55555555-55555555-55555555-----10-----------------------------|

F|---------------------------------------------------------------|
C|---------------------------------------------------------------|
G|---------------------------------------------------------------|
C|-12--1012-1012-1012-1012-10-12-1012-1012-12121221210101010-----|

2nd last chorus
F|---------------------------------------------------------------|
C|---------------------------------------------------------------|
G|---------------------------------------------------------------|
C|-2222-2222-2222-/1010101010101010-2222-2222-55555555H77777777--|

F|-----------------------------------------------------------------------|
C|-----------------------------------------------------------------------|
G|-----------------------------------------------------------------------|
C|-2222-2222-2222-/1010101010101010-2222-2222-55555555/1010101010101010--|
Suggest correction
comments
print report bad tab
12 comments total. Showing first comments.
-1 reply
Satan Man 1,286 Oct 28, 2006 09:22 AM

its played on a 6 stringso the tuning wud be probably BEADG or GCGCF

0 reply
Satan Man 1,286 Oct 28, 2006 09:23 AM

string so*

0 reply
_-Joey-_ 143 Feb 06, 2007 05:07 PM

ok sorry about that, but i only have a 4-string, hopefully gettin a 5-string soonish!!

guest
You may want to rate the tab now too:
select rating
Wanna post a correction for this tab? Suggest correction