Oops, an error
Loading. Please wait.
We have an official Take This Life tab made by UG professional guitarists. Check out the tab »
×
76,167 views 24 this week
34 commentsread comments
1 2 3 4 5
x 11
add to favorites
×
Save as Personal and add changes to this tab that will be seen only by you. Learn more ›
×
You can save this tab as Personal to edit and correct it or add notes. All changes will be seen only by you. Learn more »
launch autoscroll
font size
0
reset
how to read this tab
guitar tuner
backing track
0:00
0:00
edit
Autoscroll
slow
fast
+/-
esc
set tempo
stop
Author
band: in flames
song: take this life
album: Come Clarity
     tabber: dice4
     e-mail: diecr4@msn.com
this tab was origanly posted on metaltabs.com
realse notes: this song goes out to 555666 who really wanted this song to be tabed.
tunning: A#


INTRO:

riff1a:

|--------------------------------------------------|
|--------------------------------------------------|
|--------------------------------------------------|
|--------------------------------------------------|
|---7---7---7---7---7---7---7---7---7---7---7h10p7-|
|-0---0---0---0---0---0---0---0---0---0---0--------|
| .   .   .   .   .   .   .   .   .   .   .        |
|                                                  |
|--------------------------------------------------|
|--------------------------------------------------|
|--------------------------------------------------|
|-------------------5---5---5---5---5---5---5h8p5--|
|--------------------------------------------------|
|-----------------0---0---0---0---0---0---0--------|
                  .   .   .   .   .   .   .

riff1b:

|----------------------------------|
|----------------------------------|
|----------------------------------|
|----------------------------------|
|---6---6---6---6---6---5---5---5--|
|-0---0---0---0---0---0---0---0----|
| .   .   .   .   .   .   .   .    |
|                                  |
|----------------------------------|
|----------------------------------|
|----------------------------------|
|---4---4---4---4---4---3---3---3--|
|----------------------------------|
|-0---0---0---0---0---0---0---0----|
  .   .   .   .   .   .   .   .


riff1c:

|----------------------------------|
|----------------------------------|
|----------------------------------|
|----------------------------------|
|---7---7---7---7---7---7---7h10p7-|
|-0---0---0---0---0---0---0--------|
| .   .   .   .   .   .   .        |
|                                  |
|----------------------------------|
|----------------------------------|
|----------------------------------|
|---5---5---5---5---5---5---5h8p5--|
|----------------------------------|
|-0---0---0---0---0---0---0--------|
  .   .   .   .   .   .   .

riff1d:

|---------------------------------|
|---------------------------------|
|---------------------------------|
|---------------------------------|
|---------------------------2--2--|
|-0h3p2-2-0h3p2-2-0h3p2-2-0-0--0--|
                            .  .

riff1c

riff1b

riff1c

riff1d


riff2a:

|--------------------------------|
|--------------------------------|
|--------------------------------|
|--------------------------------|
|-2------2---2-----2---2---2-----|
|-0----0-0---0---0-0-0-0---0-----|
       .         .   .

riff2b:

|---------------------------------|
|---8---8-8-8-8-8---5---5-5-5-5-5-|
|---x---x-x-x-x-x---x---x-x-x-x-x-|
|---5---5-5-5-5-5---2---2-2-2-2-2-|
|---------------------------------|
|-0---0-----------0---0-----------|
| .   .           .   .           |
|                                 |
|---------------------------------|
|---------------------------------|
|---------------------------------|
|---2---2-2-2-2-2-----------------|
|-------------------3---3-3-3-3-3-|
|-0---0-----------0---0-----------|
  .   .           .   .

riff2a

riff2c:

|---7---7-7-7-7------------------|
|---x---x-x-x-x-7-7-7-7-7-7-7-7--|
|---4---4-4-4-4-x-x-x-x-x-x-x-x--|
|---------------4-4-4-4-4-4-4-4--|
|--------------------------------|
|-0---0--------------------------|
| .   .                          |
|                                |
|--------------------------------|
|--------------------------------|
|--------------------------------|
|---5---5-5-5-5------------------|
|---------------5-5-5-5-5-5-5-5--|
|-0---0--------------------------|
  .   .

riff2a

riff2b

riff2a

riff2d:

|---7---7-7-7-7----------------------------------|
|---x---x-x-x-x-7-7-7-7-7-7-7-7-------7-8-10-8-7-|
|---4---4-4-4-4-x-x-x-x-x-x-x-x-9-7-9------------|
|---------------4-4-4-4-4-4-4-4------------------|
|------------------------------------------------|
|-0---0------------------------------------------|
| .   .                                          |
|                                                |
|-------------------------------------5-7-8 -7-5-|
|-------------------------------8-7-8------------|
|------------------------------------------------|
|---5---5-5-5-5----------------------------------|
|---------------5-5-5-5-5-5-5-5------------------|
|-0---0------------------------------------------|
  .   .

VERSE:

riff1c

riff1b

riff1c

riff1d

repeat VERSE

PRE-CHORUS:

riff3a:

|-----------------------------------------------------------------|
|-----------------------------------------------------------------|
|-5-5-5-5-5-5-5-5-5-5-5-5-5-5-5-5-7-7-7-7-7-7-7-7-7-7-7-7-7-7-7-7-|
|-x-x-x-x-x-x-x-x-x-x-x-x-x-x-x-x-x-x-x-x-x-x-x-x-x-x-x-x-x-x-x-x-|
|-3-3-3-3-3-3-3-3-3-3-3-3-3-3-3-3-5-5-5-5-5-5-5-5-5-5-5-5-5-5-5-5-|
|-----------------------------------------------------------------|
|                                                                 |
|                                                                 |
|-----------------------------------------------------------------|
|-5-5-5-5-5-5-5-5-5-5-5-5-5-5-5-5-7-7-7-7-7-7-7-7-7-7-7-7-7-7-7-7-|
|-x-x-x-x-x-x-x-x-x-x-x-x-x-x-x-x-x-x-x-x-x-x-x-x-x-x-x-x-x-x-x-x-|
|-2-2-2-2-2-2-2-2-2-2-2-2-2-2-2-2-4-4-4-4-4-4-4-4-4-4-4-4-4-4-4-4-|
|-----------------------------------------------------------------|
|-----------------------------------------------------------------|

riff3b:

|-----------------------------------------------------------------|
|-----------------------------------------------------------------|
|-9-9-9-9-9-9-9-9-9-9-9-9-9-9-9-9---------------------------------|
|-x-x-x-x-x-x-x-x-x-x-x-x-x-x-x-x-9-9-9-9-9-9-9-9-9-9-9-9-9-9-9-9-|
|-7-7-7-7-7-7-7-7-7-7-7-7-7-7-7-7-x-x-x-x-x-x-x-x-x-x-x-x-x-x-x-x-|
|---------------------------------7-7-7-7-7-7-7-7-7-7-7-7-7-7-7-7-|
|                                                                 |
|                                                                 |
|-----------------------------------------------------------------|
|-8-8-8-8-8-8-8-8-8-8-8-8-8-8-8-8---------------------------------|
|-x-x-x-x-x-x-x-x-x-x-x-x-x-x-x-x-7-7-7-7-7-7-7-7-7-7-7-7-7-7-7-7-|
|-5-5-5-5-5-5-5-5-5-5-5-5-5-5-5-5-x-x-x-x-x-x-x-x-x-x-x-x-x-x-x-x-|
|---------------------------------5-5-5-5-5-5-5-5-5-5-5-5-5-5-5-5-|
|-----------------------------------------------------------------|

riff3a

riff3c:

|-----------------------------------------------------------------|
|-----------------------------------------------------------------|
|-9-9-9-9-9-9-9-9-9-9-9-9-9-9-9-9---------------------------------|
|-x-x-x-x-x-x-x-x-x-x-x-x-x-x-x-x-4-4-4-4-4---4-4-4-4-4-4---------|
|-7-7-7-7-7-7-7-7-7-7-7-7-7-7-7-7-------------------------5-5-5-5-|
|-----------------------------------------------------------------|
|                                 .........   ................... |
|                                                                 |
|-----------------------------------------------------------------|
|-8-8-8-8-8-8-8-8-8-8-8-8-8-8-8-8---------------------------------|
|-x-x-x-x-x-x-x-x-x-x-x-x-x-x-x-x---------------------------------|
|-5-5-5-5-5-5-5-5-5-5-5-5-5-5-5-5-4-4-4-4-4---4-4-4-4-4-4---------|
|---------------------------------------------------------5-5-5-5-|
|-----------------------------------------------------------------|
                                  .........   ...................

CHORUS:

riff4a:

|-------------------------------------------------------------|
|-------------------------------------------------------------|
|-------------------------------------------------------------|
|-------------------------------------------------------------|
|----------------------------3-3-3-3-3-3-3-3-5-5-5-5-5-5-5-5--|
|-0-0-0-0-0--------------0-0----------------------------------|
| .........              ...................................  |
|                                                             |
|---------7-------------7--------------------8-8-8-7---5------|
|-5h7--8----5-5-5h7--8-------------7--10----------------------|
|-------------------------7-7-7h9-----------------------------|
|-------------------------------------------------------------|
|-------------------------------------------------------------|
|-------------------------------------------------------------|
|           ...           ...                                 |
|                                                             |
|-------------------------------------------------------------|
|-5h7--7--8-5-5-5h7--7--8-------------7------1010107---5------|
|-------------------------7-7-7h9--9--------------------------|
|-------------------------------------------------------------|
|-------------------------------------------------------------|
|-------------------------------------------------------------|
            ...           ...

riff4b:

|-------------------------------------------------------------|
|-------------------------------------------------------------|
|-------------------------------------------------------------|
|----------------------------5-5-5-5-5-5-5-5-7-7-7-7-7-7-7-7--|
|----------------------------3-3-3-3-3-3-3-3-5-5-5-5-5-5-5-5--|
|-0-0-0-0-0--------------0-0----------------------------------|
| .........              ...                                  |
|                                                             |
|---------7-------------7-------------------------------------|
|-5h7--8----5-5-5h7--8-------------7--10-----1010108---7------|
|-------------------------7-7-7h9-----------------------------|
|-------------------------------------------------------------|
|-------------------------------------------------------------|
|-------------------------------------------------------------|
|           ...           ...                                 |
|                                                             |
|-------------------------------------------------------------|
|-5h7--7--8-5-5-5h7--7--8-------------7------7-7-7-5----------|
|-------------------------7-7-7h9--9-------------------7------|
|-------------------------------------------------------------|
|-------------------------------------------------------------|
|-------------------------------------------------------------|
            ...           ...

riff4c:

|-------------------------------------------------------------|
|-------------------------------------------------------------|
|-------------------------------------------------------------|
|----------------------------5-5-5-5-5-5-5-5-7-7-7-7-7-7-7-7--|
|-2--------------------------3-3-3-3-3-3-3-3-5-5-5-5-5-5-5-5--|
|-0-------0--------------0-0----------------------------------|
|         .              ...                                  |
|                                                             |
|---------7-------------7--------------------8-8-8-7---5------|
|-5h7--8----5-5-5h7--8-------------7--10----------------------|
|-------------------------7-7-7h9-----------------------------|
|-------------------------------------------------------------|
|-------------------------------------------------------------|
|-------------------------------------------------------------|
|           ...           ...                                 |
|                                                             |
|-------------------------------------------------------------|
|-5h7--7--8-5-5-5h7--7--8-------------7------1010107---5------|
|-------------------------7-7-7h9--9--------------------------|
|-------------------------------------------------------------|
|-------------------------------------------------------------|
|-------------------------------------------------------------|
            ...           ...

riff4c


VERSE x 2

PRE-CHORUS 2:

riff3a

riff3b

riff3a

riff3d:

|-----------------------------------------------------------------|
|-----------------------------------------------------------------|
|-9-9-9-9-9-9-9-9-9-9-9-9-9-9-9-9-10101010101010101010101010101010|
|-x-x-x-x-x-x-x-x-x-x-x-x-x-x-x-x-x-x-x-x-x-x-x-x-x-x-x-x-x-x-x-x-|
|-7-7-7-7-7-7-7-7-7-7-7-7-7-7-7-7-9-9-9-9-9-9-9-9-9-9-9-9-9-9-9-9-|
|-----------------------------------------------------------------|
|                                                                 |
|                                                                 |
|-----------------------------------------------------------------|
|-8-8-8-8-8-8-8-8-8-8-8-8-8-8-8-8-7-7-7-7-7-7-7-7-7-7-7-7-7-7-7-7-|
|-x-x-x-x-x-x-x-x-x-x-x-x-x-x-x-x-x-x-x-x-x-x-x-x-x-x-x-x-x-x-x-x-|
|-5-5-5-5-5-5-5-5-5-5-5-5-5-5-5-5-4-4-4-4-4-4-4-4-4-4-4-4-4-4-4-4-|
|-----------------------------------------------------------------|
|-----------------------------------------------------------------|

CHORUS


SOLO:

|-------------------------------------------------|
|-------------------------------------------------|
|-------------------------------------------------|
|-------------------------------------------------|
|-7-7-7-7-7-7-7-7-7-7-7-7-7-7-7-7-5-5-7-7-7-7-7-7-|
|-7-7-7-7-7-7-7-7-7-7-7-7-7-7-7-7-5-5-7-7-7-7-7-7-|
| ............................................... |
|                                                 |
|-------------------------------------------------|
|-------------------------------------------------|
|-------------------------------------------------|
|-2-2-2-2-2-2-2-2-2-2-2-2-2-2-2-2-0-0-2-2-2-2-2-2-|
|-2-2-2-2-2-2-2-2-2-2-2-2-2-2-2-2-0-0-2-2-2-2-2-2-|
|-------------------------------------------------|
  ...............................................

|---------------------------------------------------------------------|
|-8-7-------7-8-10-------------------8---------------8p7---------7-8--|
|-----9-7-9--------9-7h9-7h9-7h9-7h9---9-7h9-7h9-7h9-----9p7-7-9------|
|---------------------------------------------------------------------|
|---------------------------------------------------------------------|
|---------------------------------------------------------------------|
|                                                                     |
|                                                                     |
|-7-5-------5-7-8 ----------------------------------------------------|
|-----8-7-8--------------------------8---------------8p7---------7-8--|
|------------------9-7h9-7h9-7h9-7h9---9-7h9-7h9-7h9-----9p7-7-9------|
|---------------------------------------------------------------------|
|---------------------------------------------------------------------|
|---------------------------------------------------------------------|
|                                                                     |
|                                                                     |
|---------------------------------------------------------------------|
|---------------------------------------------------------------------|
|-7--------------------------------------------------7----------------|
|-5-------7--------------------------5-5-------------5-------7--------|
|---------5--------7-5h7-5h7-5h7-5h7---3---------------------5--------|
|---------------------------------------------------------------------|

|----------------------------------------------------|
|-------------------8---------------8p7---------7-8--|
|-9-7h9-7h9-7h9-7h9---9-7h9-7h9-7h9-----9p7-7-9------|
|----------------------------------------------------|
|----------------------------------------------------|
|----------------------------------------------------|
|                                                    |
|                                                    |
|-------------------7---------------7p5---------5-7--|
|-8-7h8-7h8-7h8-7h8---8-7h8-7h8-7h8-----8p7-7-8------|
|----------------------------------------------------|
|----------------------------------------------------|
|----------------------------------------------------|
|----------------------------------------------------|
|                                                    |
|                                                    |
|----------------------------------------------------|
|----------------------------------------------------|
|-----------------------------------7----------------|
|-------------------5-5-------------5-------7--------|
|-7-5h7-5h7-5h7-5h7---3---------------------5--------|
|----------------------------------------------------|

|--------------------------------------------------------|
|-------------------8---------------8p7---------7-8/12~--|
|-9-7h9-7h9-7h9-7h9---9-7h9-7h9-7h9-----9p7-7-9----------|
|--------------------------------------------------------|
|--------------------------------------------------------|
|--------------------------------------------------------|
|                                                        |
|                                                        |
|-------------------7---------------7p5---------5-7/10~--|
|-8-7h8-7h8-7h8-7h8---8-7h8-7h8-7h8-----8p7-7-8----------|
|--------------------------------------------------------|
|--------------------------------------------------------|
|--------------------------------------------------------|
|--------------------------------------------------------|
|                                                        |
|                                                        |
|--------------------------------------------------------|
|--------------------------------------------------------|
|-----------------------------------7--------------------|
|-------------------5-5-------------5-------7-----(7)----|
|-7-5h7-5h7-5h7-5h7---3---------------------5-----(5)----|
|--------------------------------------------------------|
                                                   x

BREAK:

riff5a:

|----------------------------------------------------------------|
|----------------------------------------------------------------|
|----------------------------------------------------------------|
|-----------------------------------------------7-7-7-7-7-7-7-7--|
|-4-----4---4-----4---4-4---4-----4---4-4---4---5-5-5-5-5-5-5-5--|
|-2---2-2---2---2-2-2-2-2---2---2-2-2-2-2---2--------------------|
      .         .   .           .   .

riff5b:

|----------------------------------------------------------------|
|----------------------------------------------------------------|
|----------------------------------------------------------------|
|-------------------------------2-2-2-2-2-2-2-2-4-4-4-4-4-4-4-4--|
|-4-----4---4-----4---4-4---4---0-0-0-0-0-0-0-0-2-2-2-2-2-2-2-2--|
|-2---2-2---2---2-2-2-2-2---2------------------------------------|
      .         .   .

riff5a

riff5c:

|----------------------------------------------------------------|
|----------------------------------------------------------------|
|----------------------------------------------------------------|
|-------------------------------2-2-2-2-2-2-2-2-9-9-9-9-9-9-9-9--|
|-4-----4---4-----4---4-4---4---0-0-0-0-0-0-0-0-7-7-7-7-7-7-7-7--|
|-2---2-2---2---2-2-2-2-2---2------------------------------------|
      .         .   .


BRIDGE:

|---------------------------|
|---------------------------|
|----------11-12-14-12-11---|
|-14-12-14------------------|
|---------------------------|
|---------------------------|
| ........................  |
|                           |
|---------------------------|
|---------------------------|
|-------------16-17-16------|
|-17-16-17-19----------19---|
|---------------------------|
|---------------------------|
  ........................


INTERLUDE:

riff1c

riff1b

riff1c

riff1d


PRE-CHORUS 2

CHORUS

OUTRO:

riff1a

riff1b

riff1c

riff1d


END


Tabulature legend:

.  - palm mute           Suffixes for bend (b):
  - slide down to       f  - full bend    h - half bend
/  - slide up to         q  - quarter bend t - tap bend
h  - hammer on           ^  - Hold bend    r release bend
p  - pull off            ~  - vibrato bend
t  - tap
ph - pinched harmonic    Suffixes for tremolo bar (tr""):
<> - natural harmonic    ~  - vibrato
x  - Stuccatto           /  - pull tremolo bar
,  - slight palm mute      - push tremolo bar (drop)
~  - vibrato
b  - bend
*  - see comment
() - ghost note, sustained note

            
            
Suggest correction
Creating personal tab
Creating personal tab
You can edit any tab online and save it as your Personal.

You can edit, replace or remove any tab part or add personal notes – all changes will be seen only by you.

Personal tabs can be accessed anytime from any device, even offline.
Learn more »
comments
print report bad tab
34 comments total. Showing first comments.
+2 reply
dicer4 325 Apr 20, 2006 01:22 PM

your dumb, if they didnt like it then they would have takeing off in the first place, and man, i was dedicating the song to you, your dumb ass, you should be proud!

+1 reply
dicer4 325 Apr 20, 2006 01:23 PM

and guy, my tab is better than yours and i did the whole ****in song you fag

-1 reply
killswitch_mike 785 Apr 26, 2006 10:51 AM

can i just add that you have copied this note from not from metaltabs?

hmmmm

http://metaltabs.com/tab/10548/

guest
You may want to rate the tab now too:
select rating
Wanna post a correction for this tab? Suggest correction