Oops, an error
Loading. Please wait.

Take This Life Tab

version 2
30,773 views 3 this week
23 commentsread comments
1 2 3 4 5
accurate
x 15
add to favorites
launch autoscroll
font size
0
reset
how to read this tab
guitar tuner
Tab Pro tools
  • play this tab
  • loop segment
  • change instrument
  • show fretboard
  • metronome
×
Best way to learn
"Take This Life"
Autoscroll
slow
fast
+/-
esc
set tempo
stop
Contributor
Band - In Flames
Song - Take This Life
Album - Come Clarity - 2006
Transcribed By - Killswitch_Mike

Tuning;

C-F-Bb-Eb-G-C

This Is My Second Attempt At This Song, Different Tuning...

Introduction;

C||-----------|------------------------------------------------------|
G||-----------|------------------------------------------------------|
Eb|-----------|------------------------------------------------------|
Bb|-----------|---7-7-7-7-7-7-7-7--8-8-8-8-8-8-8-8--6--7-7-7-7-7-7---|
F||---5-5-5-5-|---8-8-8-8-8-8-8-8--7-7-7-7-7-7-7-7--5--8-8-8-8-8-8---|
C||-0---------|-0----------------------------------------------------|
    .           .

                          ^Repeat Second Bar ^
           
C||-------------------|-----------------------------------|--|
G||-------------------|-----------------------------------|  |
Eb|-------------------|-----------------------------------|   Repeat 2nd Bar
Bb|-------------------|---1-1-1~--1-1-1~--6-6-6~--4-4-4~--|  |
F||-------------------|---1-1-1~--1-1-1~--5-5-5~--3-3-3~--|  |
C||-1h3p0-00-3h1p0-0--|---0-0-0~--0-0-0~--0-0-0~--0-0-0~--|--|

Pre-Verse;

C||---------5h6p5p4---|
G||-5h6p5p4-----------|
Eb|-------------------|
Bb|-------------------|
F||-------------------|
C||-------------------|

Verse;


C||------------------------------------------------------|--|
G||------------------------------------------------------|  |
Eb|------------------------------------------------------|  | 
Bb|---7-7-7-7-7-7-7-7--8-8-8-8-8-8-8-8--6--7-7-7-7-7-7---|   Repeat
F||---8-8-8-8-8-8-8-8--7-7-7-7-7-7-7-7--5--8-8-8-8-8-8---|  |
C||-0----------------------------------------------------|--|
    .       

Pre-Chorus;

C||-------------------------------------------------------||--|    
G||-------------------------------------------------------||  |
Eb|-2-2-2-2-2-2--4-4-4-4-4-4--6-6-6-6-6-6--4-4-4-4-4-4----||  |
Bb|-2-2-2-2-2-2--4-4-4-4-4-4--6-6-6-6-6-6--4-4-4-4-4-4----||   Repeat
F||-1-1-1-1-1-1--1-1-1-1-1-1--1-1-1-1-1-1--1-1-1-1-1-1----||  |
C||-------------------------------------------------------||--|

Chorus;

C||----------------------------------6h5-3h5p3----||
G||----5---4---3h4------5---4---3h4---------------||
Eb|--0---0---0--------0---0---0-------------------||
Bb|-----------------------------------------------|| Repeat twice
F||-----------------------------------------------||
C||-----------------------------------------------||
     .   .   .        .   .   .

Verse;


C||------------------------------------------------------|--|
G||------------------------------------------------------|  |
Eb|------------------------------------------------------|  | 
Bb|---7-7-7-7-7-7-7-7--8-8-8-8-8-8-8-8--6--7-7-7-7-7-7---|   Repeat
F||---8-8-8-8-8-8-8-8--7-7-7-7-7-7-7-7--5--8-8-8-8-8-8---|  |
C||-0----------------------------------------------------|--|
    .   

 Pre-Chorus;

C||-------------------------------------------------------||--|    
G||-------------------------------------------------------||  |
Eb|-2-2-2-2-2-2--4-4-4-4-4-4--6-6-6-6-6-6--4-4-4-4-4-4----||  |
Bb|-2-2-2-2-2-2--4-4-4-4-4-4--6-6-6-6-6-6--4-4-4-4-4-4----||   Repeat
F||-1-1-1-1-1-1--1-1-1-1-1-1--1-1-1-1-1-1--1-1-1-1-1-1----||  |
C||-------------------------------------------------------||--|

Chorus;

C||----------------------------------6h5-3h5p3----||
G||----5---4---3h4------5---4---3h4---------------||
Eb|--0---0---0--------0---0---0-------------------||
Bb|-----------------------------------------------|| Repeat twice
F||-----------------------------------------------||
C||-----------------------------------------------||
     .   .   .        .   .   .


Solo; Will Have This Soon  

Break;

C||-----------------------------------|--|
G||-----------------------------------|  |
Eb|-----------------------------------|   Repeat
Bb|---1-1-1~--1-1-1~--6-6-6~--4-4-4~--|  |
F||---1-1-1~--1-1-1~--5-5-5~--3-3-3~--|  |
C||---0-0-0~--0-0-0~--0-0-0~--0-0-0~--|--|


Final Chorus;

C||----------------------------------6h5-3h5p3----||
G||----5---4---3h4------5---4---3h4---------------||
Eb|--0---0---0--------0---0---0-------------------||
Bb|-----------------------------------------------|| Repeat twice
F||-----------------------------------------------||
C||-----------------------------------------------||
     .   .   .        .   .   .


Outro;

C||------------------------------------------------------|--|
G||------------------------------------------------------|  |
Eb|------------------------------------------------------|  | 
Bb|---7-7-7-7-7-7-7-7--8-8-8-8-8-8-8-8--6--7-7-7-7-7-7---|   Repeat
F||---8-8-8-8-8-8-8-8--7-7-7-7-7-7-7-7--5--8-8-8-8-8-8---|  |
C||-0----------------------------------------------------|--|
    .  

End on;

 
C||-------------------|
G||-------------------|
Eb|-------------------|
Bb|-------------------|
F||-------------------|
C||-1h3p0-00-3h1p0-0--|
                   . 

Second Attempt but this is now the whole song, Feedback please!

Thanks





comments
print report bad tab
23 comments total. Showing first comments.
0 reply
korn_flea wrote on May 22 2006, 03:51 pm

Great seond attempt, sounds gr8 in this tuning...

0 reply
dicer4 wrote on May 25 2006, 05:46 pm

proly better then my ripped version , 5 stars, rock the **** on dude!

0 reply
Filthy_Juggalo wrote on June 15 2006, 07:49 pm

only one thing i see wrong.
the play in A#
A# F A# D G C

I want to post or [tab]
guest
You may want to rate the tab now too:
select rating
Please do not post tabs as comments. Select "correction" instead!