Oops, an error
Loading. Please wait.

Take This Life Tab

version 4
6,999 views 3 this week
6 commentsread comments
1 2 3 4 5
accurate
x 3
add to favorites
launch autoscroll
font size
0
reset
how to read this tab
guitar tuner
Tab Pro tools
  • play this tab
  • loop segment
  • change instrument
  • show fretboard
  • metronome
Autoscroll
slow
fast
+/-
esc
set tempo
stop
Contributor
In Flames
Come Clarity- Take This Life

Tuning- A#

I did this tab because I got confused when I read the other tab for this song.  So it 
be easier to follow.

INTRO
|--------------------------------------------------|
|--------------------------------------------------|
|--------------------------------------------------|
|--------------------------------------------------|
|---7---7---7---7---7---7---7---7---7---7---7h10p7-|
|-0---0---0---0---0---0---0---0---0---0---0--------|
| .   .   .   .   .   .   .   .   .   .   .        |

|----------------------------------|
|----------------------------------|
|----------------------------------|
|----------------------------------|
|---6---6---6---6---6---5---5---5--|
|-0---0---0---0---0---0---0---0----|
| .   .   .   .   .   .   .   .    |

|---------------------------------|
|---------------------------------|
|---------------------------------|
|---------------------------------|
|---------------------------2--2--|
|-0h3p2-2-0h3p2-2-0h3p2-2-0-0--0--|
                            .  .
Break

|--------------------------------|
|--------------------------------|
|--------------------------------|
|--------------------------------|
|-2------2---2-----2---2---2-----|
|-0----0-0---0---0-0-0-0---0-----|
       .         .   .

|---------------------------------|
|---8---8-8-8-8-8---5---5-5-5-5-5-|
|---x---x-x-x-x-x---x---x-x-x-x-x-|
|---5---5-5-5-5-5---2---2-2-2-2-2-|
|---------------------------------|
|-0---0-----------0---0-----------|
| .   .           .   .           |

|---7---7-7-7-7------------------|
|---x---x-x-x-x-7-7-7-7-7-7-7-7--|
|---4---4-4-4-4-x-x-x-x-x-x-x-x--|
|---------------4-4-4-4-4-4-4-4--|
|--------------------------------|
|-0---0--------------------------|
| .   .                          |

|---7---7-7-7-7----------------------------------|
|---x---x-x-x-x-7-7-7-7-7-7-7-7-------7-8-10-8-7-|
|---4---4-4-4-4-x-x-x-x-x-x-x-x-9-7-9------------|
|---------------4-4-4-4-4-4-4-4------------------|
|------------------------------------------------|
|-0---0------------------------------------------|
| .   .                                          |

Pre-Chorus

|-----------------------------------------------------------------|
|-----------------------------------------------------------------|
|-5-5-5-5-5-5-5-5-5-5-5-5-5-5-5-5-7-7-7-7-7-7-7-7-7-7-7-7-7-7-7-7-|
|-x-x-x-x-x-x-x-x-x-x-x-x-x-x-x-x-x-x-x-x-x-x-x-x-x-x-x-x-x-x-x-x-|
|-3-3-3-3-3-3-3-3-3-3-3-3-3-3-3-3-5-5-5-5-5-5-5-5-5-5-5-5-5-5-5-5-|
|-----------------------------------------------------------------|
|                                                                 |

|-----------------------------------------------------------------|
|-----------------------------------------------------------------|
|-9-9-9-9-9-9-9-9-9-9-9-9-9-9-9-9---------------------------------|
|-x-x-x-x-x-x-x-x-x-x-x-x-x-x-x-x-9-9-9-9-9-9-9-9-9-9-9-9-9-9-9-9-|
|-7-7-7-7-7-7-7-7-7-7-7-7-7-7-7-7-x-x-x-x-x-x-x-x-x-x-x-x-x-x-x-x-|
|---------------------------------7-7-7-7-7-7-7-7-7-7-7-7-7-7-7-7-|

|-----------------------------------------------------------------|
|-----------------------------------------------------------------|
|-5-5-5-5-5-5-5-5-5-5-5-5-5-5-5-5-7-7-7-7-7-7-7-7-7-7-7-7-7-7-7-7-|
|-x-x-x-x-x-x-x-x-x-x-x-x-x-x-x-x-x-x-x-x-x-x-x-x-x-x-x-x-x-x-x-x-|
|-3-3-3-3-3-3-3-3-3-3-3-3-3-3-3-3-5-5-5-5-5-5-5-5-5-5-5-5-5-5-5-5-|
|-----------------------------------------------------------------|

|-----------------------------------------------------------------|
|-----------------------------------------------------------------|
|-9-9-9-9-9-9-9-9-9-9-9-9-9-9-9-9---------------------------------|
|-x-x-x-x-x-x-x-x-x-x-x-x-x-x-x-x-4-4-4-4-4---4-4-4-4-4-4---------|
|-7-7-7-7-7-7-7-7-7-7-7-7-7-7-7-7-------------------------5-5-5-5-|
|-----------------------------------------------------------------|
|                                 .........   ................... |

CHORUS:

Guitar 1
|-------------------------------------------------------------|
|-------------------------------------------------------------|
|-------------------------------------------------------------|
|-------------------------------------------------------------|
|----------------------------3-3-3-3-3-3-3-3-5-5-5-5-5-5-5-5--|
|-0-0-0-0-0--------------0-0----------------------------------|
| .........              ...................................  |
|                                                             |
Guitar 2
|---------7-------------7--------------------8-8-8-7---5------|
|-5h7--8----5-5-5h7--8-------------7--10----------------------|
|-------------------------7-7-7h9-----------------------------|
|-------------------------------------------------------------|
|-------------------------------------------------------------|
|-------------------------------------------------------------|
|           ...           ...                                 |
|                                                             |
|-------------------------------------------------------------|
|-5h7--7--8-5-5-5h7--7--8-------------7------1010107---5------|
|-------------------------7-7-7h9--9--------------------------|
|-------------------------------------------------------------|
|-------------------------------------------------------------|
|-------------------------------------------------------------|
            ...           ...
Guitar 1
|-------------------------------------------------------------|
|-------------------------------------------------------------|
|-------------------------------------------------------------|
|----------------------------5-5-5-5-5-5-5-5-7-7-7-7-7-7-7-7--|
|----------------------------3-3-3-3-3-3-3-3-5-5-5-5-5-5-5-5--|
|-0-0-0-0-0--------------0-0----------------------------------|
| .........              ...                                  |
|                                                             |
Guitar 2
|---------7-------------7-------------------------------------|
|-5h7--8----5-5-5h7--8-------------7--10-----1010108---7------|
|-------------------------7-7-7h9-----------------------------|
|-------------------------------------------------------------|
|-------------------------------------------------------------|
|-------------------------------------------------------------|
|           ...           ...                                 |
|                                                             |
|-------------------------------------------------------------|
|-5h7--7--8-5-5-5h7--7--8-------------7------7-7-7-5----------|
|-------------------------7-7-7h9--9-------------------7------|
|-------------------------------------------------------------|
|-------------------------------------------------------------|
|-------------------------------------------------------------|
            ...           ...
Guitar 1
|-------------------------------------------------------------|
|-------------------------------------------------------------|
|-------------------------------------------------------------|
|----------------------------5-5-5-5-5-5-5-5-7-7-7-7-7-7-7-7--|
|-2--------------------------3-3-3-3-3-3-3-3-5-5-5-5-5-5-5-5--|
|-0-------0--------------0-0----------------------------------|
|         .              ...                                  |

Guitar 2                                                            |
|---------7-------------7--------------------8-8-8-7---5------|
|-5h7--8----5-5-5h7--8-------------7--10----------------------|
|-------------------------7-7-7h9-----------------------------|
|-------------------------------------------------------------|
|-------------------------------------------------------------|
|-------------------------------------------------------------|
|           ...           ...                                 |
|                                                             |
|-------------------------------------------------------------|
|-5h7--7--8-5-5-5h7--7--8-------------7------1010107---5------|
|-------------------------7-7-7h9--9--------------------------|
|-------------------------------------------------------------|
|-------------------------------------------------------------|
|-------------------------------------------------------------|
            ...           ...

SOLO:

|-------------------------------------------------|
|-------------------------------------------------|
|-------------------------------------------------|
|-------------------------------------------------|
|-7-7-7-7-7-7-7-7-7-7-7-7-7-7-7-7-5-5-7-7-7-7-7-7-|
|-7-7-7-7-7-7-7-7-7-7-7-7-7-7-7-7-5-5-7-7-7-7-7-7-|
| ............................................... |
|                                                 |
|-------------------------------------------------|
|-------------------------------------------------|
|-------------------------------------------------|
|-2-2-2-2-2-2-2-2-2-2-2-2-2-2-2-2-0-0-2-2-2-2-2-2-|
|-2-2-2-2-2-2-2-2-2-2-2-2-2-2-2-2-0-0-2-2-2-2-2-2-|
|-------------------------------------------------|
  ...............................................

|---------------------------------------------------------------------|
|---------------------------------------------------------------------|
|-7--------------------------------------------------7----------------|
|-5-------7--------------------------5-5-------------5-------7--------|
|---------5--------7-5h7-5h7-5h7-5h7---3---------------------5--------|
|---------------------------------------------------------------------|

|----------------------------------------------------|
|----------------------------------------------------|
|-----------------------------------7----------------|
|-------------------5-5-------------5-------7--------|
|-7-5h7-5h7-5h7-5h7---3---------------------5--------|
|----------------------------------------------------|

|--------------------------------------------------------|
|--------------------------------------------------------|
|-----------------------------------7--------------------|
|-------------------5-5-------------5-------7-----(7)----|
|-7-5h7-5h7-5h7-5h7---3---------------------5-----(5)----|
|--------------------------------------------------------|
                                                   x
Interlude

|----------------------------------------------------------------|
|----------------------------------------------------------------|
|----------------------------------------------------------------|
|-----------------------------------------------7-7-7-7-7-7-7-7--|
|-4-----4---4-----4---4-4---4-----4---4-4---4---5-5-5-5-5-5-5-5--|
|-2---2-2---2---2-2-2-2-2---2---2-2-2-2-2---2--------------------|
      .         .   .           .   .

|----------------------------------------------------------------|
|----------------------------------------------------------------|
|----------------------------------------------------------------|
|-------------------------------2-2-2-2-2-2-2-2-4-4-4-4-4-4-4-4--|
|-4-----4---4-----4---4-4---4---0-0-0-0-0-0-0-0-2-2-2-2-2-2-2-2--|
|-2---2-2---2---2-2-2-2-2---2------------------------------------|
      .         .   .

|----------------------------------------------------------------|
|----------------------------------------------------------------|
|----------------------------------------------------------------|
|-------------------------------2-2-2-2-2-2-2-2-9-9-9-9-9-9-9-9--|
|-4-----4---4-----4---4-4---4---0-0-0-0-0-0-0-0-7-7-7-7-7-7-7-7--|
|-2---2-2---2---2-2-2-2-2---2------------------------------------|

|---------------------------|
|---------------------------|
|----------11-12-14-12-11---|
|-14-12-14------------------|
|---------------------------|
|---------------------------|
| ........................  |

Figure out the order of the riffs
comments
We did not receive enough feedback on this tab! Please rate:
print report bad tab
1 2 3 4 5
6 comments total. Showing first comments.
0 reply
irishmatt1992 wrote on January 18 2007, 08:19 am

I thought this song was in a dropped tunning.

-1 reply
mudvayne2005 wrote on January 18 2007, 09:34 am

nope

0 reply
Kreuger wrote on March 11 2007, 11:43 am

watching the live at the gild awards or whatever it was, it looks like Bjorn plays some barred notes so Im pretty sure its Drop A#

I want to post or [tab]
guest
You may want to rate the tab now too:
select rating
Please do not post tabs as comments. Select "correction" instead!