Oops, an error
Loading. Please wait.

Take This Life Tab

version 5
19,922 views 27 this week
11 commentsread comments
1 2 3 4 5
accurate
x 6
add to favorites
launch autoscroll
font size
0
reset
how to read this tab
guitar tuner
Autoscroll
slow
fast
+/-
esc
set tempo
stop
Help us to improve Ultimate-Guitar.com Take our survey!
×
Author
Difficulty
novice
In Flames
Come Clarity- Take This Life

Tuning- A#

I re-did this tab again, it sounds a hell of a lot better than the others.

INTRO
|---------------------|
|---------------------|
|---------------------|
|---------------------|
|---7---7---7---7---7-|
|-0---0---0---0---0---|
| .   .   .   .   .   
|------------------------------------------------------------------|
|------------------------------------------------------------------|
|------------------------------------------------------------------|
|------------------------------------------------------------------|
|---10---10---10---10---10---10---10-13---9---9---9---9---9---8---8|
|-0----0----0----0----0----0----0-------0---0---0---0---0---0---0--|
  .    .    .    .    .    .    .       .   .   .   .   .   .   .

|---------------------------------|
|---------------------------------|
|---------------------------------|
|---------------------------------|
|---------------------------2--2--|
|-0h3p2-2-0h3p2-2-0h3p2-2-0-0--0--|
                            .  .
Break

|--------------------------------|
|--------------------------------|
|--------------------------------|
|--------------------------------|
|-2------2---2-----2---2---2-----|
|-0----0-0---0---0-0-0-0---0-----|
       .         .   .

|--------------------------------------|
|--------------------------------------|
|---12--12-12-12-12-12---9---9-9-9-9-9-|
|---x---x---x--x--x--x---x---x-x-x-x-x-|
|---10--10-10-10-10-10---7---7-7-7-7-7-|
|-0---0----------------0---0-----------|
  .   .                .   .           

|--------------------------------|
|--------------------------------|
|--------------------------------|
|--------------------------------|
|-2------2---2-----2---2---2-----|
|-0----0-0---0---0-0-0-0---0-----|
       .         .   .

|-----------------------------------------|
|-----------------------------------------|
|---16--16-16-16-16-16-11-11-11-11-11-11--|
|---x---x--x--x--x--x---x--x--x--x--x--x--|
|---14--14-14-14-14-14--9--9--9--9--9--9--|
|-0---0-----------------------------------|
  .   .

|--------------------------------|
|--------------------------------|
|--------------------------------|
|--------------------------------|
|-2------2---2-----2---2---2-----|
|-0----0-0---0---0-0-0-0---0-----|
       .         .   .

|--------------------------------------|
|--------------------------------------|
|---12--12-12-12-12-12---9---9-9-9-9-9-|
|---x---x---x--x--x--x---x---x-x-x-x-x-|
|---10--10-10-10-10-10---7---7-7-7-7-7-|
|-0---0----------------0---0-----------|
  .   .                .   .                                     

|--------------------------------|
|--------------------------------|
|--------------------------------|
|--------------------------------|
|-2------2---2-----2---2---2-----|
|-0----0-0---0---0-0-0-0---0-----|
       .         .   .

|-----------------------------------------|
|-----------------------------------------|
|---16--16-16-16-16-16-11-11-11-11-11-11--|
|---x---x--x--x--x--x---x--x--x--x--x--x--|
|---14--14-14-14-14-14--9--9--9--9--9--9--|
|-0---0-----------------------------------|
  .   . 
                         
|---------------------------|
|---------------------------|
|----------11-12-14-12-11---|
|-14-12-14------------------|
|---------------------------|
|---------------------------|



INTRO= VERSE


Pre-Chorus

|-----------------------------------------------------------------|
|-----------------------------------------------------------------|
|-5-5-5-5-5-5-5-5-5-5-5-5-5-5-5-5-7-7-7-7-7-7-7-7-7-7-7-7-7-7-7-7-|
|-x-x-x-x-x-x-x-x-x-x-x-x-x-x-x-x-x-x-x-x-x-x-x-x-x-x-x-x-x-x-x-x-|
|-3-3-3-3-3-3-3-3-3-3-3-3-3-3-3-3-5-5-5-5-5-5-5-5-5-5-5-5-5-5-5-5-|
|-----------------------------------------------------------------|
|                                                                 |

|-----------------------------------------------------------------|
|-----------------------------------------------------------------|
|-9-9-9-9-9-9-9-9-9-9-9-9-9-9-9-9---------------------------------|
|-x-x-x-x-x-x-x-x-x-x-x-x-x-x-x-x-9-9-9-9-9-9-9-9-9-9-9-9-9-9-9-9-|
|-7-7-7-7-7-7-7-7-7-7-7-7-7-7-7-7-x-x-x-x-x-x-x-x-x-x-x-x-x-x-x-x-|
|---------------------------------7-7-7-7-7-7-7-7-7-7-7-7-7-7-7-7-|

|-----------------------------------------------------------------|
|-----------------------------------------------------------------|
|-5-5-5-5-5-5-5-5-5-5-5-5-5-5-5-5-7-7-7-7-7-7-7-7-7-7-7-7-7-7-7-7-|
|-x-x-x-x-x-x-x-x-x-x-x-x-x-x-x-x-x-x-x-x-x-x-x-x-x-x-x-x-x-x-x-x-|
|-3-3-3-3-3-3-3-3-3-3-3-3-3-3-3-3-5-5-5-5-5-5-5-5-5-5-5-5-5-5-5-5-|
|-----------------------------------------------------------------|

|-----------------------------------------------------------------|
|-----------------------------------------------------------------|
|-9-9-9-9-9-9-9-9-9-9-9-9-9-9-9-9---------------------------------|
|-x-x-x-x-x-x-x-x-x-x-x-x-x-x-x-x-4-4-4-4-4---4-4-4-4-4-4---------|
|-7-7-7-7-7-7-7-7-7-7-7-7-7-7-7-7-------------------------5-5-5-5-|
|-----------------------------------------------------------------|
|                                 .........   ................... |

CHORUS:

Guitar 1
|-------------------------------------------------------------|
|-------------------------------------------------------------|
|-------------------------------------------------------------|
|-------------------------------------------------------------|
|----------------------------3-3-3-3-3-3-3-3-5-5-5-5-5-5-5-5--|
|-0-0-0-0-0--------------0-0----------------------------------|
| .........              ...................................  |
|                                                             |
Guitar 2
|---------7-------------7--------------------8-8-8-7---5------|
|-5h7--8----5-5-5h7--8-------------7--10----------------------|
|-------------------------7-7-7h9-----------------------------|
|-------------------------------------------------------------|
|-------------------------------------------------------------|
|-------------------------------------------------------------|
|           ...           ...                                 |
|                                                             |
|-------------------------------------------------------------|
|-5h7--7--8-5-5-5h7--7--8-------------7------1010107---5------|
|-------------------------7-7-7h9--9--------------------------|
|-------------------------------------------------------------|
|-------------------------------------------------------------|
|-------------------------------------------------------------|
            ...           ...
Guitar 1
|-------------------------------------------------------------|
|-------------------------------------------------------------|
|-------------------------------------------------------------|
|----------------------------5-5-5-5-5-5-5-5-7-7-7-7-7-7-7-7--|
|----------------------------3-3-3-3-3-3-3-3-5-5-5-5-5-5-5-5--|
|-0-0-0-0-0--------------0-0----------------------------------|
| .........              ...                                  |
|                                                             |
GUitar 2
|---------7-------------7-------------------------------------|
|-5h7--8----5-5-5h7--8-------------7--10-----1010108---7------|
|-------------------------7-7-7h9-----------------------------|
|-------------------------------------------------------------|
|-------------------------------------------------------------|
|-------------------------------------------------------------|
|           ...           ...                                 |
|                                                             |
|-------------------------------------------------------------|
|-5h7--7--8-5-5-5h7--7--8-------------7------7-7-7-5----------|
|-------------------------7-7-7h9--9-------------------7------|
|-------------------------------------------------------------|
|-------------------------------------------------------------|
|-------------------------------------------------------------|
            ...           ...
Guitar 1
|-------------------------------------------------------------|
|-------------------------------------------------------------|
|-------------------------------------------------------------|
|----------------------------5-5-5-5-5-5-5-5-7-7-7-7-7-7-7-7--|
|-2--------------------------3-3-3-3-3-3-3-3-5-5-5-5-5-5-5-5--|
|-0-------0--------------0-0----------------------------------|
|         .              ...                                  |

Guitar 2                                                            |
|---------7-------------7--------------------8-8-8-7---5------|
|-5h7--8----5-5-5h7--8-------------7--10----------------------|
|-------------------------7-7-7h9-----------------------------|
|-------------------------------------------------------------|
|-------------------------------------------------------------|
|-------------------------------------------------------------|
|           ...           ...                                 |
|                                                             |
|-------------------------------------------------------------|
|-5h7--7--8-5-5-5h7--7--8-------------7------1010107---5------|
|-------------------------7-7-7h9--9--------------------------|
|-------------------------------------------------------------|
|-------------------------------------------------------------|
|-------------------------------------------------------------|
            ...           ...


VERSE
PRE-CHORUS
CHORUS

SOLO:

These are 12's and not 1's and 2's
|-------------------------------------------------|
|-------------------------------------------------|
|-------------------------------------------------|
|-------------------------------------------------|
|-12-12-12-12-12-12-12-12-12-12-12-12-12-12-12-12-|
|-12-12-12-12-12-12-12-12-12-12-12-12-12-12-12-12-|
| ............................................... |

|------------------|
|-8-7-------7-8-10-|
|-----9-7-9--------|
|------------------|
|------------------|
|------------------|
                                                 |
|-----------------------------------------------------|
|-----------------------------------------------------|
|------------------------------------7----------------|
|--------------------5-5-------------5-------7--------|
|--7-5h7-5h7-5h7-5h7---3---------------------5--------|
|-----------------------------------------------------|

|----------------------------------------------------|
|----------------------------------------------------|
|-----------------------------------7----------------|
|-------------------5-5-------------5-------7--------|
|-7-5h7-5h7-5h7-5h7---3---------------------5--------|
|----------------------------------------------------|

|--------------------------------------------------------|
|--------------------------------------------------------|
|-----------------------------------7--------------------|
|-------------------5-5-------------5-------7-----(7)----|
|-7-5h7-5h7-5h7-5h7---3---------------------5-----(5)----|
|--------------------------------------------------------|
                                                   x
Interlude

|----------------------------------------------------------------|
|----------------------------------------------------------------|
|----------------------------------------------------------------|
|-----------------------------------------------7-7-7-7-7-7-7-7--|
|-4-----4---4-----4---4-4---4-----4---4-4---4---5-5-5-5-5-5-5-5--|
|-2---2-2---2---2-2-2-2-2---2---2-2-2-2-2---2--------------------|
      .         .   .           .   .

|----------------------------------------------------------------|
|----------------------------------------------------------------|
|----------------------------------------------------------------|
|-------------------------------2-2-2-2-2-2-2-2-4-4-4-4-4-4-4-4--|
|-4-----4---4-----4---4-4---4---0-0-0-0-0-0-0-0-2-2-2-2-2-2-2-2--|
|-2---2-2---2---2-2-2-2-2---2------------------------------------|
      .         .   .

|----------------------------------------------------------------|
|----------------------------------------------------------------|
|----------------------------------------------------------------|
|-------------------------------2-2-2-2-2-2-2-2-9-9-9-9-9-9-9-9--|
|-4-----4---4-----4---4-4---4---0-0-0-0-0-0-0-0-7-7-7-7-7-7-7-7--|
|-2---2-2---2---2-2-2-2-2---2------------------------------------|

|---------------------------|
|---------------------------|
|----------11-12-14-12-11---|
|-14-12-14------------------|
|---------------------------|
|---------------------------|
| ........................  |

VERSE
PRE-CHORUS 
CHORUS
INTRO
Suggest correction
What's this?
You can suggest a correction to this tab. Community and Mods will review your correction and vote to approve or reject it.
comments
print report bad tab
11 comments total. Showing first comments.
+1 reply
mutehero 17 wrote on March 26 2008, 12:18 pm

Novice? At that speed with all that string crossing? Bloody hell!

0 reply
snook24 46 wrote on March 31 2008, 09:25 pm

the intro sounds so wrong to me and everyone has an intro like this. i don't know how to tab but the intro sounds like 0606060606760505050505050303 060606060676 05 03 0007 11(one one) all on the low E string (so sorry about the confusion i don't know how to make a tab) that's what it sounds like to me but whatever

-2 reply
Jdfs1 71 wrote on April 6 2008, 08:24 pm

wow, this is the best so far on here, nice tab 5 stars

guest
You may want to rate the tab now too:
select rating
Please do not post tabs as comments. Select "correction" instead!