Oops, an error
Loading. Please wait.

Take This Life Tab

version 6
6,835 views 3 this week
8 commentsread comments
1 2 3 4 5
accurate
x 5
add to favorites
launch autoscroll
font size
0
reset
how to read this tab
guitar tuner
Autoscroll
slow
fast
+/-
esc
set tempo
stop
Help us to improve Ultimate-Guitar.com Take our survey!
×
Contributor
Take This Life, by In Flames from the album Come Clarity
I've been playing this for a while now and I think I have it right, so I shall share with you.
I've learned this from the lesson on the internet, and Schehf.
Please rate and comment!

Tuning is Dropped Bb low-to-high (Bb-F-Bb-Eb-G-C)
There is a ton of harmonizing so I guess guitar 1(top) is Bjorn (Lead) and guitar 
is Jesper (Rhythm)


Intro (Part 1):
|--------------------------------------------------------------------------|
|--------------------------------------------------------------------------|
|--------------------------------------------------------------------------|
|--------------------------------------------------------------------------|
|---5---5---5---5---5---5---5---5h8p5---4---4---4---4---4---4---3---3------|
|-0---0---0---0---0---0---0---0-------0---0---0---0---0---0---0---0----|---|
| .   .   .   .   .   .   .   .       .   .   .   .   .   .   .   .      |X2
|----------------------------------------------------------------------|---|
|--------------------------------------------------------------------------|
|--------------------------------------------------------------------------|
|--------------------------------------------------------------------------|
|---8---8---8---8---8---8---8---8h11p8---7---7---7---7---7---7---6---6-----|
|-0---0---0---0---0---0---0---0--------0---0---0---0---0---0---0---0-------|
  .   .   .   .   .   .   .   .        .   .   .   .   .   .   .   .


|----------------------------------------------------------------------|
|----------------------------------------------------------------------|
|----------------------------------------------------------------------|
|----------------------------------------------------------------------|
|---5---5---5---5---5---5---5---5h8p5----------------------------------|
|-0---0---0---0---0---0---0---0-------0-8p7-0-7p5-0-5p3-0-3h5-1-1------|
| .   .   .   .   .   .   .   .                               . .
|----------------------------------------------------------------------|
|----------------------------------------------------------------------|
|----------------------------------------------------------------------|
|----------------------------------------------------------------------|
|---8---8---8---8---8---8---8---8h11p8---------------------------------|
|-0---0---0---0---0---0---0---0--------0-8p7-0-7p5-0-5p3-0-3h5-1-1-----|
                                                               . .
Repeat above sections (Intro part 1)


Intro (Part 2):
|--------------------------------------------------------------------------|
|------3-3-333-----------------------3-3-333-------------------------------|
|------2-2-222--10-10-10-7-7-7-------2-2-222-14-14-14-14-14-999999---------|
|------0-0-000-----------------------0-0-000-------------------------------|
|-0-00-0-0-000--8--8--8--5-5-5--0-00-0-0-000-12-12-12-12-12-777777---------|
|-0-00-0-0-000------------------0-00-0-0-000---------------------------|---|
|   ..                            ..                                     |X2
|----------------------------------------------------------------------|---|
|--------------------------------------------------------------------------|
|---------------7--7--7--3-3-3---------------10-10-10-10-10-555555---------|
|--------------------------------------------------------------------------|
|-0-00-0-0-000--5--5--5--1-1-1--0-00-0-0-000-8--8--8--8--8--333333---------|
|-0-00-0-0-000------------------0-00-0-0-000-------------------------------|
    ..                            ..

Repeat Intro parts 1 and 2.

Fill:
|----------------------------------------------------------------------|
|----------------------------------------------------------------------|
|----------9-10-12-10-9------------------------------------------------|
|-12-10-12-------------------------------------------------------------|
|----------------------------------------------------------------------|
|----------------------------------------------------------------------|
|
|----------------------------------------------------------------------|
|---------9-10-12-10-9-------------------------------------------------|
|-11-9--11-------------------------------------------------------------|
|----------------------------------------------------------------------|
|----------------------------------------------------------------------|
|----------------------------------------------------------------------|

Verse = Intro.

Pre-Chorus (Probably wrong):
|----------------------------------------------------------------------|
|----------------------------------------------------------------------|
|----------------------------------------------------------------------|
|-33333333-55555555-77777777-22222222--33333333-55555555-77777777------|
|-11111111-33333333-55555555-00000000--11111111-33333333-55555555------|
|----------------------------------------------------------------------|
|
|----------------------------------------------------------------------|
|----------------------------------------------------------------------|
|----------------------------------------------------------------------|
|-77777777-99999999-10101010-2222222--77777777-99999999-10101010-------|
|-55555555-77777777-88888888-0000000--55555555-77777777-88888888-------|
|----------------------------------------------------------------------|

Fill:
|----------------------------------------------------------------------|
|----------------------------------------------------------------------|
|----------------------------------------------------------------------|
|----------------------------------------------------------------------|
|-77777-777777-5~------------------------------------------------------|
|----------------------------------------------------------------------|
| ....  ......
|----------------------------------------------------------------------|
|----------------------------------------------------------------------|
|----------------------------------------------------------------------|
|----------------------------------------------------------------------|
|-10-10-10-10-10--10-10-10-10-10-10-8~---------------------------------|
|----------------------------------------------------------------------|
  .. .. .. ..     .. .. .. .. .. ..

The chorus is really complicated. I'll tab what I know.
Chorus:
|----------------------------------------------------------------------|
|----------------------------------------------------------------------|
|---------------------------------------------------------/12-10-9-----|
|-0-12-0-14-0-15-0-0-0-12-0-14-0-15-0-0-0-12-0-14-0-15-0-0-------------|
|----------------------------------------------------------------------|
|----------------------------------------------------------------------|
| .    .    .    . . .    .    .    . . .    .    .    . .
|----------------------------------------------------------------------|
|----------------------------------------------------------------------|
|----------------------------------------------------------------------|
|----------------------------------------333333-555555-----------------|
|-0000--0000-1-1-1-1-3-3-3-3--0000--0-00-111111-333333-----------------|
|-0000--0000------------------0000--0-00-------------------------------|
  ....  .... . . . . . . . .  ....  .

|----------------------------------------------------------------------|
|----------------------------------------------------------------------|
|----------------------------------------------------------------------|
|-0-12-0-14-0-15-0-0-0-12-0-14-0-15-0-0-0-12-0-14-0-15-0-0-/14-12-11---|
|----------------------------------------------------------------------|
|----------------------------------------------------------------------|
| .    .    .    . . .    .    .    . . .    .    .    . .
|----------------------------------------------------------------------|
|----------------------------------------------------------------------|
|----------------------------------------------------------------------|
|----------------------------------------333333-555555-----------------|
|-0000--0000-1-1-1-1-3-3-3-3--0000--0-00-111111-333333-----------------|
|-0000--0000------------------0000--0-00-------------------------------|
  ....  .... . . . . . . . .  ....  .

Repeat verse (which is really just the intro.)
Pre-chorus (which is still probably wrong.)
Chorus
(Insert solo here)
(Insert interlude here)
Verse ONCE
Pre-chorus
Chorus
Intro/Verse=Outro

P.S. Sorry I couldn't figure out the melody to the chorus harmony, and I also don't know 
exact pre-chorus, and I don't know the Interlude either.
Hopefully someone will read my tab and just finish it so UG can have a perfect tab for this song.
comments
print report bad tab
8 comments total. Showing first comments.
0 reply
TatarSalad2 1,891 wrote on January 18 2009, 05:34 pm

Most of it seemed right. There were a few parts that sounded off, like the chorus, and intro part 2.

0 reply
BurningTheSun 262 wrote on January 18 2009, 06:04 pm

The chorus i can almost promise is wrong, but the intro is deffinetly right, its just harmonized. try recording one and playing the other.

theres a lesson on youtube and thats what they do. i just wish i could get the chorus right.

thanks though :]

0 reply
brutalkid 355 wrote on January 19 2009, 06:39 am

well done bro!!!
but the missing peices and shotty chorus were pretty poor
well done though!!
keep up the metal
i think i know the chorus
turn your pwoer chords here

Pre-Chorus (Probably wrong):
|----------------------------------------------------------------------|
|----------------------------------------------------------------------|
|----------------------------------------------------------------------|
|-33333333-55555555-77777777-22222222--33333333-55555555-77777777------|
|-11111111-33333333-55555555-00000000--11111111-33333333-55555555------|
|----------------------------------------------------------------------|

into chords like this

|---------------|
|---------------|
|---------------|
|--1-1-1--------|
|--3-3-3--------|
|---------------|

if you get what im saying
try it that way mess around with chord shapes make 7ths and minor chords
thats the inflames sound!!!
well done!!!!

I want to post or [tab]
guest
You may want to rate the tab now too:
select rating
Please do not post tabs as comments. Select "correction" instead!