Oops, an error
Loading. Please wait.

Take This Life Tab

version 7
40,316 views 12 this week
7 commentsread comments
1 2 3 4 5
x 20
add to favorites
launch autoscroll
font size
0
reset
how to read this tab
guitar tuner
Autoscroll
slow
fast
+/-
esc
set tempo
stop
Help us to improve Ultimate-Guitar.com Take our survey!
×
Author
Difficulty
Tuning
intermediate
A# F A# D# G C
This needed to be tabbed correctly its
                  a great song so here you go guitars
                   1 and 2 both in drop A#/sharp.
                     guitar 2 is under guitar 1
                      enjoy, rate and comment!
                       Drop A# A#-F-A#-d#-G-C


  Intro Guitar 1
C |----------------------------|
G |----------------------------|
D#|----------------------------|
A#|----------------------------|
F |----5---5---5---5-----------|
A#|--0---0---0---0-------------|


  Guitar 1
C |-----------------------------------------------------------------------|
G |-----------------------------------------------------------------------|
D#|-----------------------------------------------------------------------|
A#|-----------------------------------------------------------------------|
F |----5---5---5---5---5---5---5h8p5----4---4---4---4---4---4---3---3-----|
A#|--0---0---0---0---0---0---0--------0---0---0---0---0---0---0---0-------|

  Guitar 2
C |-----------------------------------------------------------------------|
G |-----------------------------------------------------------------------|
D#|-----------------------------------------------------------------------|
A#|-----------------------------------------------------------------------|
F |----8---8---8---8---8---8---8h11p8----7---7---7---7---7---7---6---6----|
A#|--0---0---0---0---0---0---0---------0---0---0---0---0---0---0---0------|

  Guitar 1
C |------------------------------------------------------------------|
G |------------------------------------------------------------------|
D#|------------------------------------------------------------------|
A#|------------------------------------------------------------------|
F |----5---5---5---5---5---5---5h8p5--0-8-7-0-7-5-0-5-3-0-3p0-1-1----|
A#|--0---0---0---0---0---0---0--------0-8-7-0-7-5-0-5-3-0-3p0-1-1----|

  Guitar 2
C |-------------------------------------------------------------------|
G |-------------------------------------------------------------------|
D#|-------------------------------------------------------------------|
A#|-------------------------------------------------------------------|
F |----8---8---8---8---8---8---8h11p8--0-8-7-0-7-5-0-5-3-0-3p2-1-1----|
A#|--0---0---0---0---0---0---0---------0-8-7-0-7-5-0-5-3-0-3p2-1-1----|


  Guitar 1 again
C |-----------------------------------------------------------------------|
G |-----------------------------------------------------------------------|
D#|-----------------------------------------------------------------------|
A#|-----------------------------------------------------------------------|
F |----5---5---5---5---5---5---5h8p5----4---4---4---4---4---4---3---3-----|
A#|--0---0---0---0---0---0---0--------0---0---0---0---0---0---0---0-------|

  Guitar 2 again
C |-----------------------------------------------------------------------|
G |-----------------------------------------------------------------------|
D#|-----------------------------------------------------------------------|
A#|-----------------------------------------------------------------------|
F |----8---8---8---8---8---8---8h11p8----7---7---7---7---7---7---6---6----|
A#|--0---0---0---0---0---0---0---------0---0---0---0---0---0---0---0------|

  Guitar 1
C |------------------------------------------------------------------|
G |------------------------------------------------------------------|
D#|------------------------------------------------------------------|
A#|------------------------------------------------------------------|
F |----5---5---5---5---5---5---5h8p5--0-8-7-0-7-5-0-5-3-0-3p0-1-1----|
A#|--0---0---0---0---0---0---0--------0-8-7-0-7-5-0-5-3-0-3p0-1-1----|

  Guitar 2
C |-------------------------------------------------------------------|
G |-------------------------------------------------------------------|
D#|-------------------------------------------------------------------|
A#|-------------------------------------------------------------------|
F |----8---8---8---8---8---8---8h11p8--0-8-7-0-7-5-0-5-3-0-3p2-1-1----|
A#|--0---0---0---0---0---0---0---------0-8-7-0-7-5-0-5-3-0-3p2-1-1----|

  Guitar 1
C |---------------------------------------------------------|
G |---------------------------------------------------------|
D#|---------------------10-----10101010----7-----7777-------|
A#|---------------------------------------------------------|
F |--0-000-0-0-000-0-----8------8-8-8-8----5-----5555-------|
A#|--0-000-0-0-000-0--0----0-0-----------0---0-0------------|

  Guitar 2
C |---------------------------------------------------------|
G |---------------------------------------------------------|
D#|---------------------7------7777--------3-----3333-------|
A#|---------------------------------------------------------|
F |--0-000-0-0-000-0----5------5555--------1-----1111-------|
A#|--0-000-0-0-000-0--0----0-0-----------0---0-0------------|

  Guitar 1
C |---------------------------------------------------------|
G |---------------------------------------------------------|
D#|---------------------14-----14141414----9---9999999------|
A#|---------------------------------------------------------|
F |--0-000-0-0-000-0----12-----12121212----7---7777777------|
A#|--0-000-0-0-000-0--0----0-0-----------0------------------|

  Guitar 1
C |---------------------------------------------------------|
G |---------------------------------------------------------|
D#|---------------------10-----10101010----5---5555555------|
A#|---------------------------------------------------------|
F |--0-000-0-0-000-0-----8------8-8-8-8----3---3333333------|
A#|--0-000-0-0-000-0--0----0-0-----------0------------------|


  Guitar 1 again
C |---------------------------------------------------------|
G |---------------------------------------------------------|
D#|---------------------10-----10101010----7-----7777-------|
A#|---------------------------------------------------------|
F |--0-000-0-0-000-0-----8------8-8-8-8----5-----5555-------|
A#|--0-000-0-0-000-0--0----0-0-----------0---0-0------------|

  Guitar 2 again
C |---------------------------------------------------------|
G |---------------------------------------------------------|
D#|---------------------7------7777--------3-----3333-------|
A#|---------------------------------------------------------|
F |--0-000-0-0-000-0----5------5555--------1-----1111-------|
A#|--0-000-0-0-000-0--0----0-0-----------0---0-0------------|

  Guitar 1
C |---------------------------------------------------------|
G |---------------------------------------------------------|
D#|---------------------14-----14141414----9---9999999------|
A#|---------------------------------------------------------|
F |--0-000-0-0-000-0----12-----12121212----7---7777777------|
A#|--0-000-0-0-000-0--0----0-0-----------0------------------|

  Guitar 1
C |---------------------------------------------------------|
G |---------------------------------------------------------|
D#|---------------------10-----10101010----5---5555555------|
A#|---------------------------------------------------------|
F |--0-000-0-0-000-0-----8------8-8-8-8----3---3333333------|
A#|--0-000-0-0-000-0--0----0-0-----------0------------------|


  Guitar 1
C |----------------------------|
G |-------------10h11p10-------|
D#|--10p9-10h12----------12----|
A#|----------------------------|
F |----------------------------|
A#|----------------------------|

  Guitar 2
C |----------------------------|
G |-----------6h8p6------------|
D#|--7p5-7h9--------9----------|
A#|----------------------------|
F |----------------------------|
A#|----------------------------|


  Guitar 1
C |-----------------------------------------------------------------------|
G |-----------------------------------------------------------------------|
D#|-----------------------------------------------------------------------|
A#|-----------------------------------------------------------------------|
F |----5---5---5---5---5---5---5h8p5----4---4---4---4---4---4---3---3-----|
A#|--0---0---0---0---0---0---0--------0---0---0---0---0---0---0---0-------|

  Guitar 2
C |-----------------------------------------------------------------------|
G |-----------------------------------------------------------------------|
D#|-----------------------------------------------------------------------|
A#|-----------------------------------------------------------------------|
F |----8---8---8---8---8---8---8h11p8----7---7---7---7---7---7---6---6----|
A#|--0---0---0---0---0---0---0---------0---0---0---0---0---0---0---0------|

  Guitar 1
C |------------------------------------------------------------------|
G |------------------------------------------------------------------|
D#|------------------------------------------------------------------|
A#|------------------------------------------------------------------|
F |----5---5---5---5---5---5---5h8p5--0-8-7-0-7-5-0-5-3-0-3p0-1-1----|
A#|--0---0---0---0---0---0---0--------0-8-7-0-7-5-0-5-3-0-3p0-1-1----|

  Guitar 2
C |-------------------------------------------------------------------|
G |-------------------------------------------------------------------|
D#|-------------------------------------------------------------------|
A#|-------------------------------------------------------------------|
F |----8---8---8---8---8---8---8h11p8--0-8-7-0-7-5-0-5-3-0-3p2-1-1----|
A#|--0---0---0---0---0---0---0---------0-8-7-0-7-5-0-5-3-0-3p2-1-1----|


  Guitar 1 again
C |-----------------------------------------------------------------------|
G |-----------------------------------------------------------------------|
D#|-----------------------------------------------------------------------|
A#|-----------------------------------------------------------------------|
F |----5---5---5---5---5---5---5h8p5----4---4---4---4---4---4---3---3-----|
A#|--0---0---0---0---0---0---0--------0---0---0---0---0---0---0---0-------|

  Guitar 2 again
C |-----------------------------------------------------------------------|
G |-----------------------------------------------------------------------|
D#|-----------------------------------------------------------------------|
A#|-----------------------------------------------------------------------|
F |----8---8---8---8---8---8---8h11p8----7---7---7---7---7---7---6---6----|
A#|--0---0---0---0---0---0---0---------0---0---0---0---0---0---0---0------|

  Guitar 1
C |------------------------------------------------------------------|
G |------------------------------------------------------------------|
D#|------------------------------------------------------------------|
A#|------------------------------------------------------------------|
F |----5---5---5---5---5---5---5h8p5--0-8-7-0-7-5-0-5-3-0-3p0-1-1----|
A#|--0---0---0---0---0---0---0--------0-8-7-0-7-5-0-5-3-0-3p0-1-1----|

  Guitar 2
C |-------------------------------------------------------------------|
G |-------------------------------------------------------------------|
D#|-------------------------------------------------------------------|
A#|-------------------------------------------------------------------|
F |----8---8---8---8---8---8---8h11p8--0-8-7-0-7-5-0-5-3-0-3p2-1-1----|
A#|--0---0---0---0---0---0---0---------0-8-7-0-7-5-0-5-3-0-3p2-1-1----|


  Guitar 1
C |------------------------------------------|
G |------------------------------------------|
D#|--10x16--9x16-----------------------------|
A#|---------------10x22--8x6--7x4------------|
F |------------------------------------------|
A#|------------------------------------------|

  Guitar 2
C |------------------------------------------|
G |------------------------------------------|
D#|------------------------------------------|
A#|--12x16--10x24--7x6-----------------------|
F |---------------------10x6--8x4------------|
A#|------------------------------------------|

  Guitar 1
C |------------------------------------------|
G |------------------------------------------|
D#|--10x16--9x16-----------------------------|
A#|---------------12x16----------------------|
F |----------------------3x11--1x4-----------|
A#|------------------------------------------|

  Guitar 2
C |------------------------------------------|
G |------------------------------------------|
D#|------------------------------------------|
A#|--12x16--10x16--12x16---------------------|
F |-----------------------7x11--5x4----------|
A#|------------------------------------------|


  Guitar 1
C |-------------------------------------------------------------------|
G |-------------------------------------------------------------------|
D#|----7---9---10--------7---9---10--------7---9---10------/12-10-9---|
A#|--0---0---0----0-0--0---0---0----0-0--8---8---8----8-8-------------|
F |-------------------------------------------------------------------|
A#|-------------------------------------------------------------------|

  Guitar 2
C |-------------------------------------------------------------------------|
G |-------------------------------------------------------------------------|
D#|----10---12---14--------10---12---14--------10---12---14------/15-14-12--|
A#|--0----0----0----0-0--0----0----0----0-0--8----8----8----8-8-------------|
F |-------------------------------------------------------------------------|
A#|-------------------------------------------------------------------------|

  Guitar 1
C |-------------------------------------------------------------------|
G |-------------------------------------------------------------------|
D#|----7---9---10--------7---9---10--------7---9---10------/9-7-------|
A#|--0---0---0----0-0--0---0---0----0-0--8---8---8----8-8-------10----|
F |-------------------------------------------------------------------|
A#|-------------------------------------------------------------------|

  Guitar 2
C |-------------------------------------------------------------------------|
G |-------------------------------------------------------------------------|
D#|----10---12---14--------10---12---14--------10---12---14------/12-10-9---|
A#|--0----0----0----0-0--0----0----0----0-0--8----8----8----8-8-------------|
F |-------------------------------------------------------------------------|
A#|-------------------------------------------------------------------------|


  Guitar 1
C |-------------------------------------------------------------------|
G |-------------------------------------------------------------------|
D#|----7---9---10--------7---9---10--------7---9---10------/12-10-9---|
A#|--0---0---0----0-0--0---0---0----0-0--8---8---8----8-8-------------|
F |-------------------------------------------------------------------|
A#|-------------------------------------------------------------------|

  Guitar 2
C |-------------------------------------------------------------------------|
G |-------------------------------------------------------------------------|
D#|----10---12---14--------10---12---14--------10---12---14------/15-14-12--|
A#|--0----0----0----0-0--0----0----0----0-0--8----8----8----8-8-------------|
F |-------------------------------------------------------------------------|
A#|-------------------------------------------------------------------------|

  Guitar 1
C |-------------------------------------------------------------------|
G |-------------------------------------------------------------------|
D#|----7---9---10--------7---9---10--------7---9---10------/9-7-------|
A#|--0---0---0----0-0--0---0---0----0-0--8---8---8----8-8-------10----|
F |-------------------------------------------------------------------|
A#|-------------------------------------------------------------------|

  Guitar 2
C |-------------------------------------------------------------------------|
G |-------------------------------------------------------------------------|
D#|----10---12---14--------10---12---14--------10---12---14------/12-10-9---|
A#|--0----0----0----0-0--0----0----0----0-0--8----8----8----8-8-------------|
F |-------------------------------------------------------------------------|
A#|-------------------------------------------------------------------------|


  Guitar 1
C |-----------------------------------------------------------------------|
G |-----------------------------------------------------------------------|
D#|-----------------------------------------------------------------------|
A#|-----------------------------------------------------------------------|
F |----5---5---5---5---5---5---5h8p5----4---4---4---4---4---4---3---3-----|
A#|--0---0---0---0---0---0---0--------0---0---0---0---0---0---0---0-------|

  Guitar 2
C |-----------------------------------------------------------------------|
G |-----------------------------------------------------------------------|
D#|-----------------------------------------------------------------------|
A#|-----------------------------------------------------------------------|
F |----8---8---8---8---8---8---8h11p8----7---7---7---7---7---7---6---6----|
A#|--0---0---0---0---0---0---0---------0---0---0---0---0---0---0---0------|

  Guitar 1
C |------------------------------------------------------------------|
G |------------------------------------------------------------------|
D#|------------------------------------------------------------------|
A#|------------------------------------------------------------------|
F |----5---5---5---5---5---5---5h8p5--0-8-7-0-7-5-0-5-3-0-3p0-1-1----|
A#|--0---0---0---0---0---0---0--------0-8-7-0-7-5-0-5-3-0-3p0-1-1----|

  Guitar 2
C |-------------------------------------------------------------------|
G |-------------------------------------------------------------------|
D#|-------------------------------------------------------------------|
A#|-------------------------------------------------------------------|
F |----8---8---8---8---8---8---8h11p8--0-8-7-0-7-5-0-5-3-0-3p2-1-1----|
A#|--0---0---0---0---0---0---0---------0-8-7-0-7-5-0-5-3-0-3p2-1-1----|


  Guitar 1 again
C |-----------------------------------------------------------------------|
G |-----------------------------------------------------------------------|
D#|-----------------------------------------------------------------------|
A#|-----------------------------------------------------------------------|
F |----5---5---5---5---5---5---5h8p5----4---4---4---4---4---4---3---3-----|
A#|--0---0---0---0---0---0---0--------0---0---0---0---0---0---0---0-------|

  Guitar 2 again
C |-----------------------------------------------------------------------|
G |-----------------------------------------------------------------------|
D#|-----------------------------------------------------------------------|
A#|-----------------------------------------------------------------------|
F |----8---8---8---8---8---8---8h11p8----7---7---7---7---7---7---6---6----|
A#|--0---0---0---0---0---0---0---------0---0---0---0---0---0---0---0------|

  Guitar 1
C |------------------------------------------------------------------|
G |------------------------------------------------------------------|
D#|------------------------------------------------------------------|
A#|------------------------------------------------------------------|
F |----5---5---5---5---5---5---5h8p5--0-8-7-0-7-5-0-5-3-0-3p0-1-1----|
A#|--0---0---0---0---0---0---0--------0-8-7-0-7-5-0-5-3-0-3p0-1-1----|

  Guitar 2
C |-------------------------------------------------------------------|
G |-------------------------------------------------------------------|
D#|-------------------------------------------------------------------|
A#|-------------------------------------------------------------------|
F |----8---8---8---8---8---8---8h11p8--0-8-7-0-7-5-0-5-3-0-3p2-1-1----|
A#|--0---0---0---0---0---0---0---------0-8-7-0-7-5-0-5-3-0-3p2-1-1----|


  Guitar 1
C |------------------------------------------|
G |------------------------------------------|
D#|--10x16--9x16-----------------------------|
A#|---------------10x22--8x6--7x4------------|
F |------------------------------------------|
A#|------------------------------------------|

  Guitar 2
C |------------------------------------------|
G |------------------------------------------|
D#|------------------------------------------|
A#|--12x16--10x24--7x6-----------------------|
F |---------------------10x6--8x4------------|
A#|------------------------------------------|

  Guitar 1
C |--------------------------------------|
G |--------------------------------------|
D#|--10x16--9x16-------------------------|
A#|---------------12x16------------------|
F |----------------------3x16------------|
A#|--------------------------------------|

  Guitar 2
C |--------------------------------------|
G |--------------------------------------|
D#|--------------------------------------|
A#|--12x16--10x16--12x16-----------------|
F |-----------------------7x16-----------|
A#|--------------------------------------|


  Guitar 1
C |-------------------------------------------------------------------|
G |-------------------------------------------------------------------|
D#|----7---9---10--------7---9---10--------7---9---10------/12-10-9---|
A#|--0---0---0----0-0--0---0---0----0-0--8---8---8----8-8-------------|
F |-------------------------------------------------------------------|
A#|-------------------------------------------------------------------|

  Guitar 2
C |-------------------------------------------------------------------------|
G |-------------------------------------------------------------------------|
D#|----10---12---14--------10---12---14--------10---12---14------/15-14-12--|
A#|--0----0----0----0-0--0----0----0----0-0--8----8----8----8-8-------------|
F |-------------------------------------------------------------------------|
A#|-------------------------------------------------------------------------|

  Guitar 1
C |-------------------------------------------------------------------|
G |-------------------------------------------------------------------|
D#|----7---9---10--------7---9---10--------7---9---10------/9-7-------|
A#|--0---0---0----0-0--0---0---0----0-0--8---8---8----8-8-------10----|
F |-------------------------------------------------------------------|
A#|-------------------------------------------------------------------|

  Guitar 2
C |-------------------------------------------------------------------------|
G |-------------------------------------------------------------------------|
D#|----10---12---14--------10---12---14--------10---12---14------/12-10-9---|
A#|--0----0----0----0-0--0----0----0----0-0--8----8----8----8-8-------------|
F |-------------------------------------------------------------------------|
A#|-------------------------------------------------------------------------|


  Guitar 1
C |-------------------------------------------------------------------|
G |-------------------------------------------------------------------|
D#|----7---9---10--------7---9---10--------7---9---10------/12-10-9---|
A#|--0---0---0----0-0--0---0---0----0-0--8---8---8----8-8-------------|
F |-------------------------------------------------------------------|
A#|-------------------------------------------------------------------|

  Guitar 2
C |-------------------------------------------------------------------------|
G |-------------------------------------------------------------------------|
D#|----10---12---14--------10---12---14--------10---12---14------/15-14-12--|
A#|--0----0----0----0-0--0----0----0----0-0--8----8----8----8-8-------------|
F |-------------------------------------------------------------------------|
A#|-------------------------------------------------------------------------|

  Guitar 1
C |-------------------------------------------------------------------|
G |-------------------------------------------------------------------|
D#|----7---9---10--------7---9---10--------7---9---10------/9-7-------|
A#|--0---0---0----0-0--0---0---0----0-0--8---8---8----8-8-------10----|
F |-------------------------------------------------------------------|
A#|-------------------------------------------------------------------|

  Guitar 2
C |-------------------------------------------------------------------------|
G |-------------------------------------------------------------------------|
D#|----10---12---14--------10---12---14--------10---12---14------/12-10-9---|
A#|--0----0----0----0-0--0----0----0----0-0--8----8----8----8-8-------------|
F |-------------------------------------------------------------------------|
A#|-------------------------------------------------------------------------|


  Guitar 1 and 2
C |---------------|-
G |---------------|--
D#|---------------|---
A#|---------------|---- x 7
F |---------------|---
A#|--12-12-10-----|-

  Guitar 1
C |------------------------------------|
G |------------------------------------|
D#|--------14p12----------12h14h15-----|
A#|--------------15p14h15--------------|
F |------------------------------------|
A#|--12-10-----------------------------|

  Guitar 2
C |------------------------------------|
G |------------------------------------|
D#|--------10p9----------9h10h12-------|
A#|-------------12p10h12---------------|
F |------------------------------------|
A#|--12-10-----------------------------|

  Guitar 1 and 2
C |----------------------------------------------------|-
G |----------------------------------------------------|--
D#|----------------------------------------------------|---
A#|--12p0-10h12p0-10h12p0-10h12p0-10h12p0-15p0---------|----
F |----------------------------------------------------|-----
A#|----------------------------------------------------|------
                                                            - x 2
Guitar 1 and 2                                              -            
|----------------------------------------------------|-----
|----------------------------------------------------|----
|------------------------10p9----------9h10h12-------|---
|--12p0-10h12p0-10h12p0-------12p10h12---------------|--
|----------------------------------------------------|--
|----------------------------------------------------|-

  Guitar 1 and 2
C |----------------------------------------------------|-
G |----------------------------------------------------|--
D#|----------------------------------------------------|---
A#|--12p0-10h12p0-10h12p0-10h12p0-10h12p0-15p0---------|----
F |----------------------------------------------------|-----
A#|----------------------------------------------------|------
                                                            - x 1
Guitar 1 and 2                                              -            
|----------------------------------------------------|-----
|----------------------------------------------13----|----
|------------------------10p9----------9h10h12-------|---
|--12p0-10h12p0-10h12p0-------12p10h12---------------|--
|----------------------------------------------------|--
|----------------------------------------------------|-


  Guitar 1 and 2
C |----------------------------------------------------|
G |----------------------------------------------------|
D#|----------------------------------------------------|
A#|--------------------------------------55555555------|
F |--2-----2-2----2-----2-2----2-----2---33333333------|
A#|--2-2-2-2-2--2-2-2-2-2-2--2-2-2-2-2-----------------|

  Guitar 1 and 2
C |----------------------------------------------------|
G |----------------------------------------------------|
D#|----------------------------------------------------|
A#|----------------------------------------------------|
F |--2-----2-2----2-----2-2---55555555-77777777--------|
A#|--2-2-2-2-2--2-2-2-2-2-2---55555555-77777777--------|

  Guitar 1 and 2
C |----------------------------------------------------|
G |----------------------------------------------------|
D#|----------------------------------------------------|
A#|--------------------------------------55555555------|
F |--2-----2-2----2-----2-2----2-----2---33333333------|
A#|--2-2-2-2-2--2-2-2-2-2-2--2-2-2-2-2-----------------|

  Guitar 1 and 2
C |----------------------------------------------------|
G |----------------------------------------------------|
D#|----------------------------------------------------|
A#|-------------------------------------77777777-------|
F |--2-----2-2----2-----2-2---55555555--55555555-------|
A#|--2-2-2-2-2--2-2-2-2-2-2---55555555-----------------|


  Guitar 1 only
C |-----------------------------|
G |-----------------------------|
D#|--14-12----------12-14-15----|
A#|--------15-14-15-------------|
F |-----------------------------|
A#|-----------------------------|


  Guitar 1
C |-----------------------------------------------------------------------|
G |-----------------------------------------------------------------------|
D#|-----------------------------------------------------------------------|
A#|-----------------------------------------------------------------------|
F |----5---5---5---5---5---5---5h8p5----4---4---4---4---4---4---3---3-----|
A#|--0---0---0---0---0---0---0--------0---0---0---0---0---0---0---0-------|

  Guitar 2
C |-----------------------------------------------------------------------|
G |-----------------------------------------------------------------------|
D#|-----------------------------------------------------------------------|
A#|-----------------------------------------------------------------------|
F |----8---8---8---8---8---8---8h11p8----7---7---7---7---7---7---6---6----|
A#|--0---0---0---0---0---0---0---------0---0---0---0---0---0---0---0------|

  Guitar 1
C |------------------------------------------------------------------|
G |------------------------------------------------------------------|
D#|------------------------------------------------------------------|
A#|------------------------------------------------------------------|
F |----5---5---5---5---5---5---5h8p5--0-8-7-0-7-5-0-5-3-0-3p0-1-1----|
A#|--0---0---0---0---0---0---0--------0-8-7-0-7-5-0-5-3-0-3p0-1-1----|

  Guitar 2
C |-------------------------------------------------------------------|
G |-------------------------------------------------------------------|
D#|-------------------------------------------------------------------|
A#|-------------------------------------------------------------------|
F |----8---8---8---8---8---8---8h11p8--0-8-7-0-7-5-0-5-3-0-3p2-1-1----|
A#|--0---0---0---0---0---0---0---------0-8-7-0-7-5-0-5-3-0-3p2-1-1----|


  Guitar 1
C |------------------------------------------|
G |------------------------------------------|
D#|--10x16--9x16-----------------------------|
A#|---------------10x22--8x6--7x4------------|
F |------------------------------------------|
A#|------------------------------------------|

  Guitar 2
C |------------------------------------------|
G |------------------------------------------|
D#|------------------------------------------|
A#|--12x16--10x24--7x6-----------------------|
F |---------------------10x6--8x4------------|
A#|------------------------------------------|

  Guitar 1
C |--------------------------------------|
G |--------------------------------------|
D#|--10x16--9x16-------------------------|
A#|---------------12x16------------------|
F |----------------------3x16------------|
A#|--------------------------------------|

  Guitar 2
C |--------------------------------------|
G |--------------------------------------|
D#|--------------------------------------|
A#|--12x16--10x16--12x16-----------------|
F |-----------------------7x16-----------|
A#|--------------------------------------|


  Guitar 1
C |-------------------------------------------------------------------|
G |-------------------------------------------------------------------|
D#|----7---9---10--------7---9---10--------7---9---10------/12-10-9---|
A#|--0---0---0----0-0--0---0---0----0-0--8---8---8----8-8-------------|
F |-------------------------------------------------------------------|
A#|-------------------------------------------------------------------|

  Guitar 2
C |-------------------------------------------------------------------------|
G |-------------------------------------------------------------------------|
D#|----10---12---14--------10---12---14--------10---12---14------/15-14-12--|
A#|--0----0----0----0-0--0----0----0----0-0--8----8----8----8-8-------------|
F |-------------------------------------------------------------------------|
A#|-------------------------------------------------------------------------|

  Guitar 1
C |-------------------------------------------------------------------|
G |-------------------------------------------------------------------|
D#|----7---9---10--------7---9---10--------7---9---10------/9-7-------|
A#|--0---0---0----0-0--0---0---0----0-0--8---8---8----8-8-------10----|
F |-------------------------------------------------------------------|
A#|-------------------------------------------------------------------|

  Guitar 2
C |-------------------------------------------------------------------------|
G |-------------------------------------------------------------------------|
D#|----10---12---14--------10---12---14--------10---12---14------/12-10-9---|
A#|--0----0----0----0-0--0----0----0----0-0--8----8----8----8-8-------------|
F |-------------------------------------------------------------------------|
A#|-------------------------------------------------------------------------|


  Guitar 1
C |-------------------------------------------------------------------|
G |-------------------------------------------------------------------|
D#|----7---9---10--------7---9---10--------7---9---10------/12-10-9---|
A#|--0---0---0----0-0--0---0---0----0-0--8---8---8----8-8-------------|
F |-------------------------------------------------------------------|
A#|-------------------------------------------------------------------|

  Guitar 2
C |-------------------------------------------------------------------------|
G |-------------------------------------------------------------------------|
D#|----10---12---14--------10---12---14--------10---12---14------/15-14-12--|
A#|--0----0----0----0-0--0----0----0----0-0--8----8----8----8-8-------------|
F |-------------------------------------------------------------------------|
A#|-------------------------------------------------------------------------|

  Guitar 1
C |-------------------------------------------------------------------|
G |-------------------------------------------------------------------|
D#|----7---9---10--------7---9---10--------7---9---10------/9-7-------|
A#|--0---0---0----0-0--0---0---0----0-0--8---8---8----8-8-------10----|
F |-------------------------------------------------------------------|
A#|-------------------------------------------------------------------|

  Guitar 2
C |-------------------------------------------------------------------------|
G |-------------------------------------------------------------------------|
D#|----10---12---14--------10---12---14--------10---12---14------/12-10-9---|
A#|--0----0----0----0-0--0----0----0----0-0--8----8----8----8-8-------------|
F |-------------------------------------------------------------------------|
A#|-------------------------------------------------------------------------|


  Outro Guitar 1 
C |-----------------------------------------------------------------------|
G |-----------------------------------------------------------------------|
D#|-----------------------------------------------------------------------|
A#|-----------------------------------------------------------------------|
F |----5---5---5---5---5---5---5h8p5----4---4---4---4---4---4---3---3-----|
A#|--0---0---0---0---0---0---0--------0---0---0---0---0---0---0---0-------|

  Outro Guitar 2
C |-----------------------------------------------------------------------|
G |-----------------------------------------------------------------------|
D#|-----------------------------------------------------------------------|
A#|-----------------------------------------------------------------------|
F |----8---8---8---8---8---8---8h11p8----7---7---7---7---7---7---6---6----|
A#|--0---0---0---0---0---0---0---------0---0---0---0---0---0---0---0------|

  Outro Guitar 1
C |------------------------------------------------------------------|
G |------------------------------------------------------------------|
D#|------------------------------------------------------------------|
A#|------------------------------------------------------------------|
F |----5---5---5---5---5---5---5h8p5--0-8-7-0-7-5-0-5-3-0-3p0-1-1----|
A#|--0---0---0---0---0---0---0--------0-8-7-0-7-5-0-5-3-0-3p0-1-1----|

  Outro Guitar 2
C |-------------------------------------------------------------------|
G |-------------------------------------------------------------------|
D#|-------------------------------------------------------------------|
A#|-------------------------------------------------------------------|
F |----8---8---8---8---8---8---8h11p8--0-8-7-0-7-5-0-5-3-0-3p2-1-1----|
A#|--0---0---0---0---0---0---0---------0-8-7-0-7-5-0-5-3-0-3p2-1-1----|


                 This was such a long tab...
                  please Rate and comment,
                  Thanks hope you enjoyed!
                             (:


************************************

h - hammer on
p - pull off
x - times played
/ - slide

************************************
Suggest correction
comments
print report bad tab
7 comments total. Showing first comments. show 1 bad comment
+3 reply
ObtainedPenguin 30 Apr 12, 2010 07:44 PM

i played it the way that carvin has it but im not so sure if he/ she (dont know which sry) has it right. thnx for actually putting up a tab thats right for this song

-1 reply
AJSaw 76 Sep 12, 2010 03:07 AM

Good tab. I really hate the tuning.

guest
You may want to rate the tab now too:
select rating
Wanna post a correction for this tab? Suggest correction