Oops, an error
Loading. Please wait.

The Chosen Pessimist Tab

version 2
version 2

Whole song

Interactive

4,965 views 9 this week
1 commentread comment
1 2 3 4 5
accurate
x 3
add to favorites
launch autoscroll
font size
0
reset
how to read this tab
guitar tuner
Autoscroll
slow
fast
+/-
esc
set tempo
stop
Help us to improve Ultimate-Guitar.com Take our survey!
×
Author
Difficulty
Tuning
novice
A# F A# D# G C
Riff 1
C----------------------------------------------------------------------|
G------1-----1-----1-----1-------------1-----1-----1-----1-------------|
D#---2-----2-----------2-------------2-----2-----------2---------------|
A#-------0-------2---------------3-------0-------2---------------------|
F--0-----------3-----3-----3-3-5---0-----------3-----3-----------------|
A#---------------------------------------------------------------------|


Riff 2
C
G------1-----1-----1-----1------1-----1-----1-----1--------------------|
D#---2-----2-----2-----2------------------2-----2---------------2------|
A#-------------0-----0-------2------2--------------last ending:---3----|
F--0-----0-----------------3------3-----3-----3------------------------|
A#---------------------------------------------------------------------|

Riff 1

Riff 2

Riff 3
C------------------------------------------------------------------------|
G--1--1-------1-------1-------1-------1-------1---------1-------1--------|
D#-2----2---2---2---2---2---2---2---------------------2---2---2---2------|
A#-0--------------0-------0---------2---2---2----------------------------|
F--0------0-----------------------3-------3------3--3-------3------------|
A#-----------------------------------------------------------------------|



Riff 4
C------------------------------------------------------------------------|
G------------------------------------------------------------------------|
D#-10-----10-----10---9-----9-----9---5-----5---5------------------------|
A#-8--8-8-8--8-8-8--8-7-7-7-7-7-7-7-7-3-3-3-3-3-3-3-7-----7-----7--------|
F---------------------------------------------------5-5-5-5-5-5-5-5------|
A#-----------------------------------------------------------------------|



Riff 5
C----------------------------------------------------------------------------|
G----------------------------------------------------------------------------|
D#---------------------------------------------------------------------------|
A#-10-9-9-9-9-9-10-9-9-9-9-9-9-7-7-7-7-7-9-7-7-7-7-7-7-----------7-----------|
F--0--0-0-0-0-0-0--0-0-0-0-0-0-0-0-0-0-0-0-0-0-0-0-0-0-8-8-8-8-8-0-8-8-8-8-8-|
A#-----------------------------------------------------0-0-0-0-0---0-0-0-0-0-|




C---------------------------------------------------------------------------|
G---------------------------------------------------------------------------|
D#--------------------------------------------------------------------------|
A#-7-5-5-5-5-5-7-5-5-5-5-5--------------------------------------------------|
F--0-0-0-0-0-0-0-0-0-0-0-0--------------------------------------------------|
A#--------------------------------------------------------------------------|



Riff 5
C--------------------------------------------------------------------------|
G--------------------------------------------------------------------------|
D#-------------------------------------------------------------------------|
A#-------------------------------------------------------------------------|
F--7-7-7-5-7-7-7-5-7-7-7-5-7-3-3-3-7-7-7-5-7-7-7-5-7-2-3-5-5-5-5-3-5-5-5-5-|
A#-7-7-7-5-7-7-7-5-7-7-7-5-7-3-3-3-7-7-7-5-7-7-7-5-7-2-3-5-5-5-5-3-5-5-5-5-|



C--------------------------------------------------------------------------|
G--------------------------------------------------------------------------|
D#-------------------------------------------------------------------------|
A#-------------------------------------------------------------------------|
F--3-3-3-3-3-3-3-3---------------------------------------------------------|
A#-3-3-3-3-3-3-3-3---------------------------------------------------------|

Riff 1



Riff 6
C-------------------------------------------------------------------------|
G-------------------------------------------------------------------------|
D#------------------------------------------------------------------------|
A#-2-2-2-2-2-2-2-2-5-5-5-5-5-5-5-5-7-7-7-7-7-7-7-7-9-9-9-9-9-9-9-9--------|
F--0-0-0-0-0-0-0-0-3-3-3-3-3-3-3-3-5-5-5-5-5-5-5-5-7-7-7-7-7-7-7-7--------|
A#------------------------------------------------------------------------|



C--------------------------------------------------------------------------|
G--------------------------------------------------------------------------|
D#-------------------------------------------------------------------------|
A#-12-12-12-12-12-12-12-12-14-14-14-14-14-14-14-14-12-12-12-12-12-12-12-12-|
F--10-10-10-10-10-10-10-10-12-12-12-12-12-12-12-12-10-10-10-10-10-10-10-10-|
A#-------------------------------------------------------------------------|


C--------------------------------------------------------------------------|
G--------------------------------------------------------------------------|
D#-------------------------------------------------------------------------|
A#-14-14-14-14-14-14-14-14-------------------------------------------------|
F--12-12-12-12-12-12-12-12-------------------------------------------------|
A#-------------------------------------------------------------------------|



Riff 7
C--------------------------------------------------------------------------|
G--------------------------------------------------------------------------|
D#-2-2-2-2-2-2-2-2-5-5-5-5-5-5-5-5-9-9-9-9-9-9-9-9-7-7-7-7-7-7-7-7---------|
A#-2-2-2-2-2-2-2-2-5-5-5-5-5-5-5-5-9-9-9-9-9-9-9-9-7-7-7-7-7-7-7-7---------|
F--0-0-0-0-0-0-0-0-3-3-3-3-3-3-3-3-7-7-7-7-7-7-7-7-5-5-5-5-5-5-5-5---------|
A#-------------------------------------------------------------------------|


Riff 8
C--------------------------------------------------------------------------|
G--------------------------------------------------------------------------|
D#-----------------2-2-2-2-2-2-2-2-7-7-7-7-7-7-7-7-5-5-5-5-5-5-5-5---------|
A#-5-5-5-5-5-5-5-5-2-2-2-2-2-2-2-2-7-7-7-7-7-7-7-7-5-5-5-5-5-5-5-5---------|
F--5-5-5-5-5-5-5-5-0-0-0-0-0-0-0-0-5-5-5-5-5-5-5-5-3-3-3-3-3-3-3-3---------|
A#-5-5-5-5-5-5-5-5---------------------------------------------------------|


then Riff 7 till the end

end with:
C--------------------------------------------------------------------------|
G--------------------------------------------------------------------------|
D#-2-2-2-2-2-2-2-2---------------------------------------------------------|
A#-2-2-2-2-2-2-2-2---------------------------------------------------------|
F--0-0-0-0-0-0-0-0---------------------------------------------------------|
A#-------------------------------------------------------------------------|
Suggest correction
What's this?
You can suggest a correction to this tab. Community and Mods will review your correction and vote to approve or reject it.
comments
We did not receive enough feedback on this tab! Please rate:
print report bad tab
1 2 3 4 5
1 comment total.
0 reply
ByteCode 154 wrote on April 19 2011, 01:18 pm

I think Riff 4 should be like this:
C------------------------------------------------------------------------|
G------------------------------------------------------------------------|
D#-10-----10-----10---9-----9-----9---5-----5---5---4-----4-----4--------|
A#-7--7-7-7--7-7-7--7-7-7-7-7-7-7-7-7-7-7-7-7-7-7-7-7-7-7-7-7-7-7--------|
F------------------------------------------------------------------------|
A#-----------------------------------------------------------------------|

And have another rhymth, I cant write this in tab..

guest
You may want to rate the tab now too:
select rating
Please do not post tabs as comments. Select "correction" instead!