Oops, an error
Loading. Please wait.

The Jester Race Tab

version 3
version 3

Whole song

Interactive

2,161 views 1 this week
no commentswrite comment
1 2 3 4 5
2 more votes to show rating
add to favorites
launch autoscroll
font size
0
reset
how to read this tab
guitar tuner
Autoscroll
slow
fast
+/-
esc
set tempo
stop
Help us to improve Ultimate-Guitar.com Take our survey!
×
                        IN FLAMES - JESTER RACE
                     From the album The Jester Race
                       Copyright 1996 Nuclear Blast
                         Version 1 - April 1998


Transcribed by: Daniel Lindgren with assistance and additions from
                    Mathias Wallin
Bass by:        Mathias Wallin

For questions, comments, corrections or newest version please contact 
Daniel Lindgren at daniel.lindgren@kramnet.com or
Mathias Wallin at mathias.wallin@kramnet.com 

This tab made possible by an Elite Member of  s Death Tab!!!
Check out 's web page, with more trancriptions on it:
               

Join the death/black tab mailing list by emailing


\ - slide down to       h - hammer on
p - pull off    ~ - vibrato
. - palm mute   x - percussion note


Tuning: C (drop every string down two steps)


Intro - Guitar 1 - 8 times

|-------------------------------------------------------------------------|
|-------------------------------------------------------------------------|
|---7-7---7---7-7------7-7---7---7---------7-7---7--------5-5---5-5-------|
|-9-----7---7-------10-----9---7---------9-----7---7----7-----5-----7-----|
|-------------------------------------------------------------------------|
|-------------------------------------------------------------------------|

Intro - Guitar 2
* comes in after 2 intros

1st time

|-------------------------------------------------------------------------|
|-------------------------------------------------------------------------|
|-------------------------------------------------------------------------|
|-------------------------------------------------------------------------|
|-7-7-7-7-7-7-7-7-7-7-7-7-7-7-7-7-7-7-7-7--5-5----------------------------|
|-5-5-5-5-5-5-5-5-5-5-5-5-5-5-5-5-5-5-5-5--3-3----------------------------|
  . . . . . . . . . . . . . . . . . . . .


2nd time

|-------------------------------------------------------------------------|
|-------------------------------------------------------------------------|
|-------------------------------------------------------------------------|
|-------------------------------------------------------------------------|
|-777-7-7-7-7-7-7--777-7-7-7-7-7-7--777-7-7-7-7-7-7--5-5------------------|
|-555-5-5-5-5-5-5--555-5-5-5-5-5-5--555-5-5-5-5-5-5--3-3------------------|
  ... . . . . . .  ... . . . . . .  ... . . . . . .

3rd time

|-------------------------------------------------------------------------|
|-------------------------------------------------------------------------|
|-------------------------------------------------------------------------|
|-------------------------------------------------------------------------|
|-777-7-7-777-777-777-7-7-777-777-777-7-7-777-777-777-7-7--5-5------------|
|-555-5-5-555-555-555-5-5-555-555-555-5-5-555-555-555-5-5--3-3------------|
  ... . . ... ... ... . . ... ... ... . . ... ... ... . .

Riff A - Guitar 1 & 2 4 times

|-------------------------------------------------------------------------|
|-------------------------------------------------------------------------|
|---9------7---7----10------9----9------9-----7---7-----------------------|
|--10------9---9----12-----10---10-----10-----9---9-----------------------|
|-----0-0----0---0-----0-0----0----0-0---0--0---0------3-3-3--5-5---------|
|------------------------------------------------------1-1-1--3-3---------|
      . .    .   .     . .    .    . .   .  .   .

Fill for the end of Riff A, plays 3rd and 4th time

|-------------------------------------------------------------------------|

|-------------------------------------------------------------------------|
|-5---8-7--3-5------------------------------------------------------------|
|-------------------------------------------------------------------------|
|-------------------------------------------------------------------------|
|-------------------------------------------------------------------------|


Chorus Guitar 1 - 2 times

|-------------------------------------------------------------------------|
|-------------------------------------------------------------------------|
|----9-7-9---9-7-9-------------9-7---------9-7-9---9-7-9-------------9-7--|
|--7-------7-------9---------9-----10----7-------7-------9---------9------|
|--------------------10-7-10-------------------------------10-7-10--------|
|-------------------------------------------------------------------------|
|
| Guitar 2 - 2 times  
| * ends same time as Guitar 1, of course
|-------------------------------------------------------------------------|
|-------------------------------------------------------------------------|
|-------------------------------------------------------------------------|
|-------------------------------------------------------------------------|
|-7-7-7-7-7-7-7-7-2-2-2-2-2-2-2-2-----------------------------------------|
|-5-5-5-5-5-5-5-5-0-0-0-0-0-0-0-0-----------------------------------------|
  . . . . . . . . . . . . . . . .

Replay Riff A 2 times but end 2nd time with (both guitars):

|----------------------------------------p-h------------------------------|
|--------------(This for guitar 1 only)-9-7-9-----------------------------|
|-------------------------------------------------------------------------|
|-------------------------------------------------------------------------|
|-3-3-3-5-5---------------------------------------------------------------|
|-1-1-1-3-3---------------------------------------------------------------|


Replay Chorus 2 times


Riff B Guitar 1 & 2 - 2 times
* 1st time one guitar only, second guitar comes in on the percussion
  note 1st time

|-------------------------------------------------------------------------|
|-------------------------------------------------------------------------|
|-------------------------------------------------------------------------|
|-------------------------------------------------------------------------|
|-2-2-2-222-2-2---10-9----------------------------------------------------|
|-0-0-0-000-0-0-x---------------------------------------------------------|
  . . . ... . .

Riff C - Guitar 1 & 2 - 3 times

|-------------------------------------------------------------------------|
|-------------------------------------------------------------------------|
|-------------------------------------------------------------------------|
|-----------------------------9-------------------------------------------|
|-----9-7---10-9---10-9-10-12---------------------------------------------|
|-0-0-----0------0--------------------------------------------------------|
  . .     .      .


Replay Riff B 2 times
Replay Riff C 4 times
Replay Chorus 2 times
Replay Riff B 2 times
Replay Riff C 2 times
Replay Riff B 2 times
Replay Riff C 4 times
Replay Riff A 2 times
Replay Riff A with fill 2 times



Rythm guitar for solo

|-------------------------------------------------------------------------|
|-------------------------------------------------------------------------|
|-------------------------------------------------------------------------|
|-2--2--2-------------------------------------------------------------------|
|-0--0--0--3-3-5-5----------------------------------------------------------|
|----------1-1-3-3----------------------------------------------------------|
  .  .  .

Replay Riff C 12 times

Riff D

|-------------------------------------------------------------------------|
|-------------------------------------------------------------------------|
|-------------------------------------------------------------------------|
|-------------------------------------------------------------------------|
|-2-2-222-2---------------------------------------------------------------|
|-0-0-000-0---------------------------------------------------------------|
  . . ... 


BASS TAB
All bass of course end same time as the guitars...

Intro - play with guitar 1 and and same time as it

|-------------------------------------------------------------------------|
|-------------------------------------------------------------------------|
|-------------------------------------------------------------------------|
|-5-5-5--5-5-5--5-5-5--3-3-3----------------------------------------------|

Riff A

|-------------------------------------------------------------------------|
|-------------------------------------------------------------------------|
|-0--0-0-0-0--0-0-0-0--0-0-0----------------------------------------------|
|----------------------------1-1-3-3--------------------------------------|

Chorus

|-------------------------------------------------------------------------|
|-------------------------------------------------------------------------|
|-------------------------------------------------------------------------|
|-5-5-5-5-5-5-5-5-0-0-0-0-0-0-0-0-----------------------------------------|

Riff B

|-------------------------------------------------------------------------|
|-------------------------------------------------------------------------|
|-------------------------------------------------------------------------|
|-0-0-0-000-0-0-x-3-2-----------------------------------------------------|

Riff C

|-------------------------------------------------------------------------|
|-------------------------------------------------------------------------|
|-----9-7---10-9---10-9~--------------------------------------------------|
|-0-0-----0------0--------------------------------------------------------|

Solo

|-------------------------------------------------------------------------|
|-------------------------------------------------------------------------|
|-0--0--0-----------------------------------------------------------------|
|----------1-1-3-3--------------------------------------------------------|

Riff D

|-------------------------------------------------------------------------|
|-------------------------------------------------------------------------|
|-------------------------------------------------------------------------|
|-0-0-000-0---------------------------------------------------------------|
Suggest correction
Give kudos to tab author, rate the tab!
1 2 3 4 5
comments
print report bad tab
guest
You may want to rate the tab now too:
select rating
Wanna post a correction for this tab? Suggest correction